  0
SECTION
  2
HEADER
  9
$ACADVER
  1
AC1014
  9
$HANDSEED
  5
FFFF
  9
$MEASUREMENT
 70
     1
  0
ENDSEC
  0
SECTION
  2
TABLES
  0
TABLE
  2
VPORT
  5
8
330
0
100
AcDbSymbolTable
 70
     4
  0
VPORT
  5
2E
330
8
100
AcDbSymbolTableRecord
100
AcDbViewportTableRecord
  2
*ACTIVE
 70
     0
 10
0.0
 20
0.0
 11
1.0
 21
1.0
 12
210.0
 22
148.5
 13
0.0
 23
0.0
 14
10.0
 24
10.0
 15
10.0
 25
10.0
 16
0.0
 26
0.0
 36
1.0
 17
0.0
 27
0.0
 37
0.0
 40
341.0
 41
1.24
 42
50.0
 43
0.0
 44
0.0
 50
0.0
 51
0.0
 71
     0
 72
   100
 73
     1
 74
     3
 75
     0
 76
     0
 77
     0
 78
     0
  0
ENDTAB
  0
TABLE
  2
LTYPE
  5
5
330
0
100
AcDbSymbolTable
 70
     1
  0
LTYPE
  5
14
330
5
100
AcDbSymbolTableRecord
100
AcDbLinetypeTableRecord
  2
BYBLOCK
 70
     0
  3

 72
    65
 73
     0
 40
0.0
  0
LTYPE
  5
15
330
5
100
AcDbSymbolTableRecord
100
AcDbLinetypeTableRecord
  2
BYLAYER
 70
     0
  3

 72
    65
 73
     0
 40
0.0
  0
LTYPE
  5
16
330
5
100
AcDbSymbolTableRecord
100
AcDbLinetypeTableRecord
  2
CONTINUOUS
 70
     0
  3
Solid line
 72
    65
 73
     0
 40
0.0
  0
ENDTAB
  0
TABLE
  2
LAYER
  5
2
100
AcDbSymbolTable
 70
2
  0
LAYER
  5
50
100
AcDbSymbolTableRecord
100
AcDbLayerTableRecord
  2
0
 70
0
  6
CONTINUOUS
  0
LAYER
  5
51
100
AcDbSymbolTableRecord
100
AcDbLayerTableRecord
  2
horse_unicorn_preggo
 70
0
  6
CONTINUOUS
  0
ENDTAB
  0
TABLE
  2
STYLE
  5
3
330
0
100
AcDbSymbolTable
 70
     1
  0
STYLE
  5
11
330
3
100
AcDbSymbolTableRecord
100
AcDbTextStyleTableRecord
  2
STANDARD
 70
     0
 40
0.0
 41
1.0
 50
0.0
 71
     0
 42
2.5
  3
txt
  4

  0
ENDTAB
  0
TABLE
  2
VIEW
  5
6
330
0
100
AcDbSymbolTable
 70
     0
  0
ENDTAB
  0
TABLE
  2
UCS
  5
7
330
0
100
AcDbSymbolTable
 70
     0
  0
ENDTAB
  0
TABLE
  2
APPID
  5
9
330
0
100
AcDbSymbolTable
 70
     2
  0
APPID
  5
12
330
9
100
AcDbSymbolTableRecord
100
AcDbRegAppTableRecord
  2
ACAD
 70
     0
  0
ENDTAB
  0
TABLE
  2
DIMSTYLE
  5
A
330
0
100
AcDbSymbolTable
 70
     1
  0
DIMSTYLE
105
27
330
A
100
AcDbSymbolTableRecord
100
AcDbDimStyleTableRecord
  2
ISO-25
 70
     0
  3

  4

  5

  6

  7

 40
1.0
 41
2.5
 42
0.625
 43
3.75
 44
1.25
 45
0.0
 46
0.0
 47
0.0
 48
0.0
140
2.5
141
2.5
142
0.0
143
0.03937007874016
144
1.0
145
0.0
146
1.0
147
0.625
 71
     0
 72
     0
 73
     0
 74
     0
 75
     0
 76
     0
 77
     1
 78
     8
170
     0
171
     3
172
     1
173
     0
174
     0
175
     0
176
     0
177
     0
178
     0
270
     2
271
     2
272
     2
273
     2
274
     3
340
11
275
     0
280
     0
281
     0
282
     0
283
     0
284
     8
285
     0
286
     0
287
     3
288
     0
  0
ENDTAB
  0
TABLE
  2
BLOCK_RECORD
  5
1
330
0
100
AcDbSymbolTable
 70
     1
  0
BLOCK_RECORD
  5
1F
330
1
100
AcDbSymbolTableRecord
100
AcDbBlockTableRecord
  2
*MODEL_SPACE
  0
BLOCK_RECORD
  5
1B
330
1
100
AcDbSymbolTableRecord
100
AcDbBlockTableRecord
  2
*PAPER_SPACE
  0
ENDTAB
  0
ENDSEC
  0
SECTION
  2
BLOCKS
  0
BLOCK
  5
20
330
1F
100
AcDbEntity
  8
0
100
AcDbBlockBegin
  2
*MODEL_SPACE
 70
     0
 10
0.0
 20
0.0
 30
0.0
  3
*MODEL_SPACE
  1

  0
ENDBLK
  5
21
330
1F
100
AcDbEntity
  8
0
100
AcDbBlockEnd
  0
BLOCK
  5
1C
330
1B
100
AcDbEntity
 67
     1
  8
0
100
AcDbBlockBegin
  2
*PAPER_SPACE
  1

  0
ENDBLK
  5
1D
330
1B
100
AcDbEntity
 67
     1
  8
0
100
AcDbBlockEnd
  0
ENDSEC
  0
SECTION
  2
ENTITIES
  0
SPLINE
  5
100
100
AcDbEntity
  8
horse_unicorn_preggo
 62
7
100
AcDbSpline
 70
8
 71
3
 72
8
 73
4
 74
0
 40
0
 40
0
 40
0
 40
0
 40
1
 40
1
 40
1
 40
1
 10
6.085180
 20
4.544400
 30
0.0
 10
6.043342
 20
4.536794
 30
0.0
 10
6.020997
 20
4.521580
 30
0.0
 10
5.987242
 20
4.478316
 30
0.0
  0
SPLINE
  5
101
100
AcDbEntity
  8
horse_unicorn_preggo
 62
7
100
AcDbSpline
 70
8
 71
3
 72
8
 73
4
 74
0
 40
0
 40
0
 40
0
 40
0
 40
1
 40
1
 40
1
 40
1
 10
5.997701
 20
4.469758
 30
0.0
 10
6.050474
 20
4.510170
 30
0.0
 10
6.062835
 20
4.516350
 30
0.0
 10
6.096590
 20
4.519203
 30
0.0
  0
SPLINE
  5
102
100
AcDbEntity
  8
horse_unicorn_preggo
 62
7
100
AcDbSpline
 70
8
 71
3
 72
8
 73
4
 74
0
 40
0
 40
0
 40
0
 40
0
 40
1
 40
1
 40
1
 40
1
 10
6.096590
 20
4.519203
 30
0.0
 10
6.140329
 20
4.523482
 30
0.0
 10
6.164101
 20
4.514924
 30
0.0
 10
6.204987
 20
4.480218
 30
0.0
  0
SPLINE
  5
103
100
AcDbEntity
  8
horse_unicorn_preggo
 62
7
100
AcDbSpline
 70
8
 71
3
 72
8
 73
4
 74
0
 40
0
 40
0
 40
0
 40
0
 40
1
 40
1
 40
1
 40
1
 10
6.204987
 20
4.480218
 30
0.0
 10
6.224955
 20
4.464053
 30
0.0
 10
6.245874
 20
4.445036
 30
0.0
 10
6.252055
 20
4.438856
 30
0.0
  0
LWPOLYLINE
  5
104
100
AcDbEntity
  8
horse_unicorn_preggo
 62
7
100
AcDbPolyline
 90
3
 70
0
 10
5.987242
 20
4.478316
 30
0.0
 10
5.955863
 20
4.437905
 30
0.0
 10
5.997701
 20
4.469758
 30
0.0
  0
SPLINE
  5
105
100
AcDbEntity
  8
horse_unicorn_preggo
 62
7
100
AcDbSpline
 70
8
 71
3
 72
8
 73
4
 74
0
 40
0
 40
0
 40
0
 40
0
 40
1
 40
1
 40
1
 40
1
 10
6.156969
 20
4.427445
 30
0.0
 10
6.061884
 20
4.427921
 30
0.0
 10
6.045719
 20
4.426970
 30
0.0
 10
5.999603
 20
4.416510
 30
0.0
  0
SPLINE
  5
106
100
AcDbEntity
  8
horse_unicorn_preggo
 62
7
100
AcDbSpline
 70
8
 71
3
 72
8
 73
4
 74
0
 40
0
 40
0
 40
0
 40
0
 40
1
 40
1
 40
1
 40
1
 10
5.999603
 20
4.416510
 30
0.0
 10
5.971553
 20
4.410330
 30
0.0
 10
5.949683
 20
4.404149
 30
0.0
 10
5.951109
 20
4.402723
 30
0.0
  0
SPLINE
  5
107
100
AcDbEntity
  8
horse_unicorn_preggo
 62
7
100
AcDbSpline
 70
8
 71
3
 72
8
 73
4
 74
0
 40
0
 40
0
 40
0
 40
0
 40
1
 40
1
 40
1
 40
1
 10
5.951109
 20
4.402723
 30
0.0
 10
5.952060
 20
4.401297
 30
0.0
 10
5.975356
 20
4.403198
 30
0.0
 10
6.001980
 20
4.406526
 30
0.0
  0
SPLINE
  5
108
100
AcDbEntity
  8
horse_unicorn_preggo
 62
7
100
AcDbSpline
 70
8
 71
3
 72
8
 73
4
 74
0
 40
0
 40
0
 40
0
 40
0
 40
1
 40
1
 40
1
 40
1
 10
6.001980
 20
4.406526
 30
0.0
 10
6.049047
 20
4.412232
 30
0.0
 10
6.128444
 20
4.408428
 30
0.0
 10
6.174560
 20
4.398444
 30
0.0
  0
SPLINE
  5
109
100
AcDbEntity
  8
horse_unicorn_preggo
 62
7
100
AcDbSpline
 70
8
 71
3
 72
8
 73
4
 74
0
 40
0
 40
0
 40
0
 40
0
 40
1
 40
1
 40
1
 40
1
 10
6.174560
 20
4.398444
 30
0.0
 10
6.193102
 20
4.394165
 30
0.0
 10
6.089934
 20
4.383706
 30
0.0
 10
6.017669
 20
4.382755
 30
0.0
  0
SPLINE
  5
10a
100
AcDbEntity
  8
horse_unicorn_preggo
 62
7
100
AcDbSpline
 70
8
 71
3
 72
8
 73
4
 74
0
 40
0
 40
0
 40
0
 40
0
 40
1
 40
1
 40
1
 40
1
 10
6.017669
 20
4.382755
 30
0.0
 10
5.924485
 20
4.380853
 30
0.0
 10
5.933043
 20
4.374197
 30
0.0
 10
6.029555
 20
4.373722
 30
0.0
  0
SPLINE
  5
10b
100
AcDbEntity
  8
horse_unicorn_preggo
 62
7
100
AcDbSpline
 70
8
 71
3
 72
8
 73
4
 74
0
 40
0
 40
0
 40
0
 40
0
 40
1
 40
1
 40
1
 40
1
 10
6.029555
 20
4.373722
 30
0.0
 10
6.144608
 20
4.372771
 30
0.0
 10
6.186446
 20
4.368017
 30
0.0
 10
6.219726
 20
4.353754
 30
0.0
  0
LWPOLYLINE
  5
10c
100
AcDbEntity
  8
horse_unicorn_preggo
 62
7
100
AcDbPolyline
 90
3
 70
0
 10
6.252055
 20
4.438856
 30
0.0
 10
6.262990
 20
4.426970
 30
0.0
 10
6.156969
 20
4.427445
 30
0.0
  0
SPLINE
  5
10d
100
AcDbEntity
  8
horse_unicorn_preggo
 62
7
100
AcDbSpline
 70
8
 71
3
 72
8
 73
4
 74
0
 40
0
 40
0
 40
0
 40
0
 40
1
 40
1
 40
1
 40
1
 10
6.193577
 20
4.331884
 30
0.0
 10
6.164576
 20
4.326179
 30
0.0
 10
6.106574
 20
4.316671
 30
0.0
 10
6.064261
 20
4.311441
 30
0.0
  0
LWPOLYLINE
  5
10e
100
AcDbEntity
  8
horse_unicorn_preggo
 62
7
100
AcDbPolyline
 90
3
 70
0
 10
6.219726
 20
4.353754
 30
0.0
 10
6.245399
 20
4.342819
 30
0.0
 10
6.193577
 20
4.331884
 30
0.0
  0
SPLINE
  5
10f
100
AcDbEntity
  8
horse_unicorn_preggo
 62
7
100
AcDbSpline
 70
8
 71
3
 72
8
 73
4
 74
0
 40
0
 40
0
 40
0
 40
0
 40
1
 40
1
 40
1
 40
1
 10
5.961569
 20
4.311441
 30
0.0
 10
5.935896
 20
4.320950
 30
0.0
 10
5.828924
 20
4.388460
 30
0.0
 10
5.826072
 20
4.397018
 30
0.0
  0
SPLINE
  5
110
100
AcDbEntity
  8
horse_unicorn_preggo
 62
7
100
AcDbSpline
 70
8
 71
3
 72
8
 73
4
 74
0
 40
0
 40
0
 40
0
 40
0
 40
1
 40
1
 40
1
 40
1
 10
5.826072
 20
4.397018
 30
0.0
 10
5.825121
 20
4.399870
 30
0.0
 10
5.822268
 20
4.401772
 30
0.0
 10
5.819416
 20
4.401772
 30
0.0
  0
SPLINE
  5
111
100
AcDbEntity
  8
horse_unicorn_preggo
 62
7
100
AcDbSpline
 70
8
 71
3
 72
8
 73
4
 74
0
 40
0
 40
0
 40
0
 40
0
 40
1
 40
1
 40
1
 40
1
 10
5.819416
 20
4.401772
 30
0.0
 10
5.817039
 20
4.401772
 30
0.0
 10
5.791841
 20
4.417937
 30
0.0
 10
5.764266
 20
4.438380
 30
0.0
  0
SPLINE
  5
112
100
AcDbEntity
  8
horse_unicorn_preggo
 62
7
100
AcDbSpline
 70
8
 71
3
 72
8
 73
4
 74
0
 40
0
 40
0
 40
0
 40
0
 40
1
 40
1
 40
1
 40
1
 10
5.764266
 20
4.438380
 30
0.0
 10
5.736216
 20
4.458348
 30
0.0
 10
5.705789
 20
4.479742
 30
0.0
 10
5.696755
 20
4.486398
 30
0.0
  0
LWPOLYLINE
  5
113
100
AcDbEntity
  8
horse_unicorn_preggo
 62
7
100
AcDbPolyline
 90
3
 70
0
 10
6.064261
 20
4.311441
 30
0.0
 10
5.987717
 20
4.301932
 30
0.0
 10
5.961569
 20
4.311441
 30
0.0
  0
SPLINE
  5
114
100
AcDbEntity
  8
horse_unicorn_preggo
 62
7
100
AcDbSpline
 70
8
 71
3
 72
8
 73
4
 74
0
 40
0
 40
0
 40
0
 40
0
 40
1
 40
1
 40
1
 40
1
 10
5.694378
 20
4.484972
 30
0.0
 10
5.702461
 20
4.477841
 30
0.0
 10
5.727658
 20
4.453594
 30
0.0
 10
5.750954
 20
4.431249
 30
0.0
  0
LWPOLYLINE
  5
115
100
AcDbEntity
  8
horse_unicorn_preggo
 62
7
100
AcDbPolyline
 90
3
 70
0
 10
5.696755
 20
4.486398
 30
0.0
 10
5.680116
 20
4.497809
 30
0.0
 10
5.694378
 20
4.484972
 30
0.0
  0
SPLINE
  5
116
100
AcDbEntity
  8
horse_unicorn_preggo
 62
7
100
AcDbSpline
 70
8
 71
3
 72
8
 73
4
 74
0
 40
0
 40
0
 40
0
 40
0
 40
1
 40
1
 40
1
 40
1
 10
5.774726
 20
4.394165
 30
0.0
 10
5.764266
 20
4.396067
 30
0.0
 10
5.743823
 20
4.399395
 30
0.0
 10
5.728609
 20
4.402248
 30
0.0
  0
SPLINE
  5
117
100
AcDbEntity
  8
horse_unicorn_preggo
 62
7
100
AcDbSpline
 70
8
 71
3
 72
8
 73
4
 74
0
 40
0
 40
0
 40
0
 40
0
 40
1
 40
1
 40
1
 40
1
 10
5.728609
 20
4.402248
 30
0.0
 10
5.660148
 20
4.413658
 30
0.0
 10
5.608326
 20
4.441233
 30
0.0
 10
5.561734
 20
4.490677
 30
0.0
  0
SPLINE
  5
118
100
AcDbEntity
  8
horse_unicorn_preggo
 62
7
100
AcDbSpline
 70
8
 71
3
 72
8
 73
4
 74
0
 40
0
 40
0
 40
0
 40
0
 40
1
 40
1
 40
1
 40
1
 10
5.561734
 20
4.490677
 30
0.0
 10
5.519896
 20
4.534416
 30
0.0
 10
5.495174
 20
4.544400
 30
0.0
 10
5.448107
 20
4.536318
 30
0.0
  0
SPLINE
  5
119
100
AcDbEntity
  8
horse_unicorn_preggo
 62
7
100
AcDbSpline
 70
8
 71
3
 72
8
 73
4
 74
0
 40
0
 40
0
 40
0
 40
0
 40
1
 40
1
 40
1
 40
1
 10
5.448107
 20
4.536318
 30
0.0
 10
5.431467
 20
4.533466
 30
0.0
 10
5.409122
 20
4.527285
 30
0.0
 10
5.397712
 20
4.522531
 30
0.0
  0
LWPOLYLINE
  5
11a
100
AcDbEntity
  8
horse_unicorn_preggo
 62
7
100
AcDbPolyline
 90
3
 70
0
 10
5.750954
 20
4.431249
 30
0.0
 10
5.792792
 20
4.390837
 30
0.0
 10
5.774726
 20
4.394165
 30
0.0
  0
SPLINE
  5
11b
100
AcDbEntity
  8
horse_unicorn_preggo
 62
7
100
AcDbSpline
 70
8
 71
3
 72
8
 73
4
 74
0
 40
0
 40
0
 40
0
 40
0
 40
1
 40
1
 40
1
 40
1
 10
5.426713
 20
4.513498
 30
0.0
 10
5.486617
 20
4.513022
 30
0.0
 10
5.494223
 20
4.510170
 30
0.0
 10
5.554127
 20
4.461201
 30
0.0
  0
SPLINE
  5
11c
100
AcDbEntity
  8
horse_unicorn_preggo
 62
7
100
AcDbSpline
 70
8
 71
3
 72
8
 73
4
 74
0
 40
0
 40
0
 40
0
 40
0
 40
1
 40
1
 40
1
 40
1
 10
5.554127
 20
4.461201
 30
0.0
 10
5.579800
 20
4.440757
 30
0.0
 10
5.617835
 20
4.416035
 30
0.0
 10
5.642081
 20
4.403674
 30
0.0
  0
SPLINE
  5
11d
100
AcDbEntity
  8
horse_unicorn_preggo
 62
7
100
AcDbSpline
 70
8
 71
3
 72
8
 73
4
 74
0
 40
0
 40
0
 40
0
 40
0
 40
1
 40
1
 40
1
 40
1
 10
5.642081
 20
4.403674
 30
0.0
 10
5.679640
 20
4.385132
 30
0.0
 10
5.690575
 20
4.381804
 30
0.0
 10
5.734790
 20
4.377525
 30
0.0
  0
SPLINE
  5
11e
100
AcDbEntity
  8
horse_unicorn_preggo
 62
7
100
AcDbSpline
 70
8
 71
3
 72
8
 73
4
 74
0
 40
0
 40
0
 40
0
 40
0
 40
1
 40
1
 40
1
 40
1
 10
5.734790
 20
4.377525
 30
0.0
 10
5.791366
 20
4.371820
 30
0.0
 10
5.814186
 20
4.363738
 30
0.0
 10
5.843187
 20
4.340442
 30
0.0
  0
LWPOLYLINE
  5
11f
100
AcDbEntity
  8
horse_unicorn_preggo
 62
7
100
AcDbPolyline
 90
3
 70
0
 10
5.397712
 20
4.522531
 30
0.0
 10
5.377268
 20
4.513498
 30
0.0
 10
5.426713
 20
4.513498
 30
0.0
  0
SPLINE
  5
120
100
AcDbEntity
  8
horse_unicorn_preggo
 62
7
100
AcDbSpline
 70
8
 71
3
 72
8
 73
4
 74
0
 40
0
 40
0
 40
0
 40
0
 40
1
 40
1
 40
1
 40
1
 10
5.812760
 20
4.305736
 30
0.0
 10
5.721953
 20
4.273407
 30
0.0
 10
5.649213
 20
4.271030
 30
0.0
 10
5.607851
 20
4.298604
 30
0.0
  0
SPLINE
  5
121
100
AcDbEntity
  8
horse_unicorn_preggo
 62
7
100
AcDbSpline
 70
8
 71
3
 72
8
 73
4
 74
0
 40
0
 40
0
 40
0
 40
0
 40
1
 40
1
 40
1
 40
1
 10
5.607851
 20
4.298604
 30
0.0
 10
5.580276
 20
4.317146
 30
0.0
 10
5.576472
 20
4.329032
 30
0.0
 10
5.580751
 20
4.382755
 30
0.0
  0
SPLINE
  5
122
100
AcDbEntity
  8
horse_unicorn_preggo
 62
7
100
AcDbSpline
 70
8
 71
3
 72
8
 73
4
 74
0
 40
0
 40
0
 40
0
 40
0
 40
1
 40
1
 40
1
 40
1
 10
5.580751
 20
4.382755
 30
0.0
 10
5.582177
 20
4.405100
 30
0.0
 10
5.582177
 20
4.421740
 30
0.0
 10
5.580751
 20
4.420314
 30
0.0
  0
SPLINE
  5
123
100
AcDbEntity
  8
horse_unicorn_preggo
 62
7
100
AcDbSpline
 70
8
 71
3
 72
8
 73
4
 74
0
 40
0
 40
0
 40
0
 40
0
 40
1
 40
1
 40
1
 40
1
 10
5.580751
 20
4.420314
 30
0.0
 10
5.578849
 20
4.418888
 30
0.0
 10
5.572193
 20
4.394165
 30
0.0
 10
5.566013
 20
4.365640
 30
0.0
  0
SPLINE
  5
124
100
AcDbEntity
  8
horse_unicorn_preggo
 62
7
100
AcDbSpline
 70
8
 71
3
 72
8
 73
4
 74
0
 40
0
 40
0
 40
0
 40
0
 40
1
 40
1
 40
1
 40
1
 10
5.566013
 20
4.365640
 30
0.0
 10
5.551275
 20
4.301932
 30
0.0
 10
5.553652
 20
4.293375
 30
0.0
 10
5.589309
 20
4.275784
 30
0.0
  0
SPLINE
  5
125
100
AcDbEntity
  8
horse_unicorn_preggo
 62
7
100
AcDbSpline
 70
8
 71
3
 72
8
 73
4
 74
0
 40
0
 40
0
 40
0
 40
0
 40
1
 40
1
 40
1
 40
1
 10
5.589309
 20
4.275784
 30
0.0
 10
5.622589
 20
4.259619
 30
0.0
 10
5.663476
 20
4.252963
 30
0.0
 10
5.705789
 20
4.256767
 30
0.0
  0
LWPOLYLINE
  5
126
100
AcDbEntity
  8
horse_unicorn_preggo
 62
7
100
AcDbPolyline
 90
3
 70
0
 10
5.843187
 20
4.340442
 30
0.0
 10
5.863631
 20
4.324278
 30
0.0
 10
5.812760
 20
4.305736
 30
0.0
  0
SPLINE
  5
127
100
AcDbEntity
  8
horse_unicorn_preggo
 62
7
100
AcDbSpline
 70
8
 71
3
 72
8
 73
4
 74
0
 40
0
 40
0
 40
0
 40
0
 40
1
 40
1
 40
1
 40
1
 10
5.729560
 20
4.243930
 30
0.0
 10
5.723379
 20
4.235373
 30
0.0
 10
5.708641
 20
4.218257
 30
0.0
 10
5.696755
 20
4.206372
 30
0.0
  0
SPLINE
  5
128
100
AcDbEntity
  8
horse_unicorn_preggo
 62
7
100
AcDbSpline
 70
8
 71
3
 72
8
 73
4
 74
0
 40
0
 40
0
 40
0
 40
0
 40
1
 40
1
 40
1
 40
1
 10
5.696755
 20
4.206372
 30
0.0
 10
5.672509
 20
4.182125
 30
0.0
 10
5.653016
 20
4.175469
 30
0.0
 10
5.625917
 20
4.183076
 30
0.0
  0
SPLINE
  5
129
100
AcDbEntity
  8
horse_unicorn_preggo
 62
7
100
AcDbSpline
 70
8
 71
3
 72
8
 73
4
 74
0
 40
0
 40
0
 40
0
 40
0
 40
1
 40
1
 40
1
 40
1
 10
5.625917
 20
4.183076
 30
0.0
 10
5.616408
 20
4.185453
 30
0.0
 10
5.601195
 20
4.188781
 30
0.0
 10
5.591686
 20
4.190207
 30
0.0
  0
SPLINE
  5
12a
100
AcDbEntity
  8
horse_unicorn_preggo
 62
7
100
AcDbSpline
 70
8
 71
3
 72
8
 73
4
 74
0
 40
0
 40
0
 40
0
 40
0
 40
1
 40
1
 40
1
 40
1
 10
5.591686
 20
4.190207
 30
0.0
 10
5.582177
 20
4.191633
 30
0.0
 10
5.551750
 20
4.203994
 30
0.0
 10
5.524175
 20
4.217782
 30
0.0
  0
SPLINE
  5
12b
100
AcDbEntity
  8
horse_unicorn_preggo
 62
7
100
AcDbSpline
 70
8
 71
3
 72
8
 73
4
 74
0
 40
0
 40
0
 40
0
 40
0
 40
1
 40
1
 40
1
 40
1
 10
5.524175
 20
4.217782
 30
0.0
 10
5.496601
 20
4.232045
 30
0.0
 10
5.474731
 20
4.241553
 30
0.0
 10
5.476157
 20
4.239651
 30
0.0
  0
SPLINE
  5
12c
100
AcDbEntity
  8
horse_unicorn_preggo
 62
7
100
AcDbSpline
 70
8
 71
3
 72
8
 73
4
 74
0
 40
0
 40
0
 40
0
 40
0
 40
1
 40
1
 40
1
 40
1
 10
5.476157
 20
4.239651
 30
0.0
 10
5.481862
 20
4.230143
 30
0.0
 10
5.580276
 20
4.162157
 30
0.0
 10
5.595965
 20
4.156452
 30
0.0
  0
SPLINE
  5
12d
100
AcDbEntity
  8
horse_unicorn_preggo
 62
7
100
AcDbSpline
 70
8
 71
3
 72
8
 73
4
 74
0
 40
0
 40
0
 40
0
 40
0
 40
1
 40
1
 40
1
 40
1
 10
5.595965
 20
4.156452
 30
0.0
 10
5.621163
 20
4.147418
 30
0.0
 10
5.656344
 20
4.148369
 30
0.0
 10
5.672033
 20
4.157878
 30
0.0
  0
SPLINE
  5
12e
100
AcDbEntity
  8
horse_unicorn_preggo
 62
7
100
AcDbSpline
 70
8
 71
3
 72
8
 73
4
 74
0
 40
0
 40
0
 40
0
 40
0
 40
1
 40
1
 40
1
 40
1
 10
5.672033
 20
4.157878
 30
0.0
 10
5.679165
 20
4.162157
 30
0.0
 10
5.693427
 20
4.172141
 30
0.0
 10
5.703887
 20
4.180223
 30
0.0
  0
SPLINE
  5
12f
100
AcDbEntity
  8
horse_unicorn_preggo
 62
7
100
AcDbSpline
 70
8
 71
3
 72
8
 73
4
 74
0
 40
0
 40
0
 40
0
 40
0
 40
1
 40
1
 40
1
 40
1
 10
5.703887
 20
4.180223
 30
0.0
 10
5.714346
 20
4.187830
 30
0.0
 10
5.705789
 20
4.177846
 30
0.0
 10
5.684870
 20
4.157878
 30
0.0
  0
SPLINE
  5
130
100
AcDbEntity
  8
horse_unicorn_preggo
 62
7
100
AcDbSpline
 70
8
 71
3
 72
8
 73
4
 74
0
 40
0
 40
0
 40
0
 40
0
 40
1
 40
1
 40
1
 40
1
 10
5.684870
 20
4.157878
 30
0.0
 10
5.644934
 20
4.119844
 30
0.0
 10
5.642081
 20
4.118893
 30
0.0
 10
5.597391
 20
4.121270
 30
0.0
  0
SPLINE
  5
131
100
AcDbEntity
  8
horse_unicorn_preggo
 62
7
100
AcDbSpline
 70
8
 71
3
 72
8
 73
4
 74
0
 40
0
 40
0
 40
0
 40
0
 40
1
 40
1
 40
1
 40
1
 10
5.597391
 20
4.121270
 30
0.0
 10
5.575521
 20
4.122221
 30
0.0
 10
5.533208
 20
4.144090
 30
0.0
 10
5.505158
 20
4.168337
 30
0.0
  0
SPLINE
  5
132
100
AcDbEntity
  8
horse_unicorn_preggo
 62
7
100
AcDbSpline
 70
8
 71
3
 72
8
 73
4
 74
0
 40
0
 40
0
 40
0
 40
0
 40
1
 40
1
 40
1
 40
1
 10
5.505158
 20
4.168337
 30
0.0
 10
5.469977
 20
4.198765
 30
0.0
 10
5.433369
 20
4.205421
 30
0.0
 10
5.344939
 20
4.196388
 30
0.0
  0
LWPOLYLINE
  5
133
100
AcDbEntity
  8
horse_unicorn_preggo
 62
7
100
AcDbPolyline
 90
3
 70
0
 10
5.705789
 20
4.256767
 30
0.0
 10
5.740970
 20
4.260095
 30
0.0
 10
5.729560
 20
4.243930
 30
0.0
  0
SPLINE
  5
134
100
AcDbEntity
  8
horse_unicorn_preggo
 62
7
100
AcDbSpline
 70
8
 71
3
 72
8
 73
4
 74
0
 40
0
 40
0
 40
0
 40
0
 40
1
 40
1
 40
1
 40
1
 10
5.328299
 20
4.187354
 30
0.0
 10
5.354448
 20
4.185453
 30
0.0
 10
5.393908
 20
4.180698
 30
0.0
 10
5.415778
 20
4.175944
 30
0.0
  0
SPLINE
  5
135
100
AcDbEntity
  8
horse_unicorn_preggo
 62
7
100
AcDbSpline
 70
8
 71
3
 72
8
 73
4
 74
0
 40
0
 40
0
 40
0
 40
0
 40
1
 40
1
 40
1
 40
1
 10
5.415778
 20
4.175944
 30
0.0
 10
5.450484
 20
4.168813
 30
0.0
 10
5.462845
 20
4.163108
 30
0.0
 10
5.515142
 20
4.130779
 30
0.0
  0
SPLINE
  5
136
100
AcDbEntity
  8
horse_unicorn_preggo
 62
7
100
AcDbSpline
 70
8
 71
3
 72
8
 73
4
 74
0
 40
0
 40
0
 40
0
 40
0
 40
1
 40
1
 40
1
 40
1
 10
5.515142
 20
4.130779
 30
0.0
 10
5.559832
 20
4.102728
 30
0.0
 10
5.580276
 20
4.092744
 30
0.0
 10
5.597867
 20
4.090367
 30
0.0
  0
SPLINE
  5
137
100
AcDbEntity
  8
horse_unicorn_preggo
 62
7
100
AcDbSpline
 70
8
 71
3
 72
8
 73
4
 74
0
 40
0
 40
0
 40
0
 40
0
 40
1
 40
1
 40
1
 40
1
 10
5.597867
 20
4.090367
 30
0.0
 10
5.610228
 20
4.088465
 30
0.0
 10
5.620687
 20
4.085613
 30
0.0
 10
5.620687
 20
4.083711
 30
0.0
  0
SPLINE
  5
138
100
AcDbEntity
  8
horse_unicorn_preggo
 62
7
100
AcDbSpline
 70
8
 71
3
 72
8
 73
4
 74
0
 40
0
 40
0
 40
0
 40
0
 40
1
 40
1
 40
1
 40
1
 10
5.620687
 20
4.083711
 30
0.0
 10
5.620687
 20
4.081334
 30
0.0
 10
5.614982
 20
4.073727
 30
0.0
 10
5.608326
 20
4.066596
 30
0.0
  0
LWPOLYLINE
  5
139
100
AcDbEntity
  8
horse_unicorn_preggo
 62
7
100
AcDbPolyline
 90
3
 70
0
 10
5.344939
 20
4.196388
 30
0.0
 10
5.280756
 20
4.190207
 30
0.0
 10
5.328299
 20
4.187354
 30
0.0
  0
SPLINE
  5
13a
100
AcDbEntity
  8
horse_unicorn_preggo
 62
7
100
AcDbSpline
 70
8
 71
3
 72
8
 73
4
 74
0
 40
0
 40
0
 40
0
 40
0
 40
1
 40
1
 40
1
 40
1
 10
5.543192
 20
4.056136
 30
0.0
 10
5.483289
 20
4.058989
 30
0.0
 10
5.432893
 20
4.072776
 30
0.0
 10
5.397236
 20
4.095121
 30
0.0
  0
SPLINE
  5
13b
100
AcDbEntity
  8
horse_unicorn_preggo
 62
7
100
AcDbSpline
 70
8
 71
3
 72
8
 73
4
 74
0
 40
0
 40
0
 40
0
 40
0
 40
1
 40
1
 40
1
 40
1
 10
5.397236
 20
4.095121
 30
0.0
 10
5.339709
 20
4.131254
 30
0.0
 10
5.293593
 20
4.143140
 30
0.0
 10
5.238443
 20
4.135057
 30
0.0
  0
LWPOLYLINE
  5
13c
100
AcDbEntity
  8
horse_unicorn_preggo
 62
7
100
AcDbPolyline
 90
3
 70
0
 10
5.608326
 20
4.066596
 30
0.0
 10
5.595965
 20
4.053284
 30
0.0
 10
5.543192
 20
4.056136
 30
0.0
  0
SPLINE
  5
13d
100
AcDbEntity
  8
horse_unicorn_preggo
 62
7
100
AcDbSpline
 70
8
 71
3
 72
8
 73
4
 74
0
 40
0
 40
0
 40
0
 40
0
 40
1
 40
1
 40
1
 40
1
 10
5.247476
 20
4.118417
 30
0.0
 10
5.273625
 20
4.112712
 30
0.0
 10
5.302626
 20
4.105581
 30
0.0
 10
5.312135
 20
4.103204
 30
0.0
  0
SPLINE
  5
13e
100
AcDbEntity
  8
horse_unicorn_preggo
 62
7
100
AcDbSpline
 70
8
 71
3
 72
8
 73
4
 74
0
 40
0
 40
0
 40
0
 40
0
 40
1
 40
1
 40
1
 40
1
 10
5.312135
 20
4.103204
 30
0.0
 10
5.330676
 20
4.098449
 30
0.0
 10
5.444779
 20
4.039972
 30
0.0
 10
5.444779
 20
4.035693
 30
0.0
  0
SPLINE
  5
13f
100
AcDbEntity
  8
horse_unicorn_preggo
 62
7
100
AcDbSpline
 70
8
 71
3
 72
8
 73
4
 74
0
 40
0
 40
0
 40
0
 40
0
 40
1
 40
1
 40
1
 40
1
 10
5.444779
 20
4.035693
 30
0.0
 10
5.444779
 20
4.032365
 30
0.0
 10
5.211819
 20
4.020955
 30
0.0
 10
5.154293
 20
4.021430
 30
0.0
  0
SPLINE
  5
140
100
AcDbEntity
  8
horse_unicorn_preggo
 62
7
100
AcDbSpline
 70
8
 71
3
 72
8
 73
4
 74
0
 40
0
 40
0
 40
0
 40
0
 40
1
 40
1
 40
1
 40
1
 10
5.154293
 20
4.021430
 30
0.0
 10
5.105799
 20
4.021430
 30
0.0
 10
5.074896
 20
4.031890
 30
0.0
 10
5.018320
 20
4.068022
 30
0.0
  0
SPLINE
  5
141
100
AcDbEntity
  8
horse_unicorn_preggo
 62
7
100
AcDbSpline
 70
8
 71
3
 72
8
 73
4
 74
0
 40
0
 40
0
 40
0
 40
0
 40
1
 40
1
 40
1
 40
1
 10
5.018320
 20
4.068022
 30
0.0
 10
4.998352
 20
4.080383
 30
0.0
 10
5.006910
 20
4.071350
 30
0.0
 10
5.040666
 20
4.043775
 30
0.0
  0
SPLINE
  5
142
100
AcDbEntity
  8
horse_unicorn_preggo
 62
7
100
AcDbSpline
 70
8
 71
3
 72
8
 73
4
 74
0
 40
0
 40
0
 40
0
 40
0
 40
1
 40
1
 40
1
 40
1
 10
5.040666
 20
4.043775
 30
0.0
 10
5.073945
 20
4.016201
 30
0.0
 10
5.106750
 20
3.998134
 30
0.0
 10
5.123865
 20
3.997659
 30
0.0
  0
SPLINE
  5
143
100
AcDbEntity
  8
horse_unicorn_preggo
 62
7
100
AcDbSpline
 70
8
 71
3
 72
8
 73
4
 74
0
 40
0
 40
0
 40
0
 40
0
 40
1
 40
1
 40
1
 40
1
 10
5.123865
 20
3.997659
 30
0.0
 10
5.132898
 20
3.997183
 30
0.0
 10
5.132898
 20
3.997183
 30
0.0
 10
5.124341
 20
3.992429
 30
0.0
  0
SPLINE
  5
144
100
AcDbEntity
  8
horse_unicorn_preggo
 62
7
100
AcDbSpline
 70
8
 71
3
 72
8
 73
4
 74
0
 40
0
 40
0
 40
0
 40
0
 40
1
 40
1
 40
1
 40
1
 10
5.124341
 20
3.992429
 30
0.0
 10
5.115308
 20
3.986724
 30
0.0
 10
5.072519
 20
3.989101
 30
0.0
 10
5.019271
 20
3.998134
 30
0.0
  0
SPLINE
  5
145
100
AcDbEntity
  8
horse_unicorn_preggo
 62
7
100
AcDbSpline
 70
8
 71
3
 72
8
 73
4
 74
0
 40
0
 40
0
 40
0
 40
0
 40
1
 40
1
 40
1
 40
1
 10
5.019271
 20
3.998134
 30
0.0
 10
5.003582
 20
4.000987
 30
0.0
 10
4.979811
 20
4.002413
 30
0.0
 10
4.966974
 20
4.001462
 30
0.0
  0
LWPOLYLINE
  5
146
100
AcDbEntity
  8
horse_unicorn_preggo
 62
7
100
AcDbPolyline
 90
3
 70
0
 10
5.238443
 20
4.135057
 30
0.0
 10
5.199934
 20
4.129352
 30
0.0
 10
5.247476
 20
4.118417
 30
0.0
  0
SPLINE
  5
147
100
AcDbEntity
  8
horse_unicorn_preggo
 62
7
100
AcDbSpline
 70
8
 71
3
 72
8
 73
4
 74
0
 40
0
 40
0
 40
0
 40
0
 40
1
 40
1
 40
1
 40
1
 10
4.981237
 20
3.991003
 30
0.0
 10
5.002156
 20
3.986249
 30
0.0
 10
5.044944
 20
3.977215
 30
0.0
 10
5.076323
 20
3.971510
 30
0.0
  0
LWPOLYLINE
  5
148
100
AcDbEntity
  8
horse_unicorn_preggo
 62
7
100
AcDbPolyline
 90
3
 70
0
 10
4.966974
 20
4.001462
 30
0.0
 10
4.943203
 20
4.000036
 30
0.0
 10
4.981237
 20
3.991003
 30
0.0
  0
SPLINE
  5
149
100
AcDbEntity
  8
horse_unicorn_preggo
 62
7
100
AcDbSpline
 70
8
 71
3
 72
8
 73
4
 74
0
 40
0
 40
0
 40
0
 40
0
 40
1
 40
1
 40
1
 40
1
 10
5.098668
 20
3.952969
 30
0.0
 10
5.064912
 20
3.945362
 30
0.0
 10
5.062060
 20
3.945362
 30
0.0
 10
5.018796
 20
3.954870
 30
0.0
  0
SPLINE
  5
14a
100
AcDbEntity
  8
horse_unicorn_preggo
 62
7
100
AcDbSpline
 70
8
 71
3
 72
8
 73
4
 74
0
 40
0
 40
0
 40
0
 40
0
 40
1
 40
1
 40
1
 40
1
 10
5.018796
 20
3.954870
 30
0.0
 10
4.959843
 20
3.967707
 30
0.0
 10
4.955564
 20
3.966756
 30
0.0
 10
4.995500
 20
3.950592
 30
0.0
  0
SPLINE
  5
14b
100
AcDbEntity
  8
horse_unicorn_preggo
 62
7
100
AcDbSpline
 70
8
 71
3
 72
8
 73
4
 74
0
 40
0
 40
0
 40
0
 40
0
 40
1
 40
1
 40
1
 40
1
 10
4.995500
 20
3.950592
 30
0.0
 10
5.014042
 20
3.943460
 30
0.0
 10
5.038288
 20
3.932050
 30
0.0
 10
5.049699
 20
3.925869
 30
0.0
  0
LWPOLYLINE
  5
14c
100
AcDbEntity
  8
horse_unicorn_preggo
 62
7
100
AcDbPolyline
 90
3
 70
0
 10
5.076323
 20
3.971510
 30
0.0
 10
5.133374
 20
3.961051
 30
0.0
 10
5.098668
 20
3.952969
 30
0.0
  0
SPLINE
  5
14d
100
AcDbEntity
  8
horse_unicorn_preggo
 62
7
100
AcDbSpline
 70
8
 71
3
 72
8
 73
4
 74
0
 40
0
 40
0
 40
0
 40
0
 40
1
 40
1
 40
1
 40
1
 10
5.040666
 20
3.913033
 30
0.0
 10
5.003582
 20
3.911131
 30
0.0
 10
4.913726
 20
3.924443
 30
0.0
 10
4.899464
 20
3.933476
 30
0.0
  0
SPLINE
  5
14e
100
AcDbEntity
  8
horse_unicorn_preggo
 62
7
100
AcDbSpline
 70
8
 71
3
 72
8
 73
4
 74
0
 40
0
 40
0
 40
0
 40
0
 40
1
 40
1
 40
1
 40
1
 10
4.899464
 20
3.933476
 30
0.0
 10
4.893758
 20
3.937280
 30
0.0
 10
4.883299
 20
3.950116
 30
0.0
 10
4.876168
 20
3.962002
 30
0.0
  0
SPLINE
  5
14f
100
AcDbEntity
  8
horse_unicorn_preggo
 62
7
100
AcDbSpline
 70
8
 71
3
 72
8
 73
4
 74
0
 40
0
 40
0
 40
0
 40
0
 40
1
 40
1
 40
1
 40
1
 10
4.876168
 20
3.962002
 30
0.0
 10
4.858577
 20
3.991954
 30
0.0
 10
4.856675
 20
3.985298
 30
0.0
 10
4.872364
 20
3.950116
 30
0.0
  0
SPLINE
  5
150
100
AcDbEntity
  8
horse_unicorn_preggo
 62
7
100
AcDbSpline
 70
8
 71
3
 72
8
 73
4
 74
0
 40
0
 40
0
 40
0
 40
0
 40
1
 40
1
 40
1
 40
1
 10
4.872364
 20
3.950116
 30
0.0
 10
4.882348
 20
3.927296
 30
0.0
 10
4.889004
 20
3.919213
 30
0.0
 10
4.903267
 20
3.912082
 30
0.0
  0
SPLINE
  5
151
100
AcDbEntity
  8
horse_unicorn_preggo
 62
7
100
AcDbSpline
 70
8
 71
3
 72
8
 73
4
 74
0
 40
0
 40
0
 40
0
 40
0
 40
1
 40
1
 40
1
 40
1
 10
4.903267
 20
3.912082
 30
0.0
 10
4.921333
 20
3.902573
 30
0.0
 10
4.981237
 20
3.890212
 30
0.0
 10
5.033534
 20
3.884507
 30
0.0
  0
LWPOLYLINE
  5
152
100
AcDbEntity
  8
horse_unicorn_preggo
 62
7
100
AcDbPolyline
 90
3
 70
0
 10
5.049699
 20
3.925869
 30
0.0
 10
5.070617
 20
3.914459
 30
0.0
 10
5.040666
 20
3.913033
 30
0.0
  0
SPLINE
  5
153
100
AcDbEntity
  8
horse_unicorn_preggo
 62
7
100
AcDbSpline
 70
8
 71
3
 72
8
 73
4
 74
0
 40
0
 40
0
 40
0
 40
0
 40
1
 40
1
 40
1
 40
1
 10
4.938449
 20
3.864539
 30
0.0
 10
4.917530
 20
3.870244
 30
0.0
 10
4.885676
 20
3.883081
 30
0.0
 10
4.867134
 20
3.893540
 30
0.0
  0
LWPOLYLINE
  5
154
100
AcDbEntity
  8
horse_unicorn_preggo
 62
7
100
AcDbPolyline
 90
5
 70
0
 10
5.033534
 20
3.884507
 30
0.0
 10
5.061584
 20
3.881179
 30
0.0
 10
5.018796
 20
3.867392
 30
0.0
 10
4.976483
 20
3.854080
 30
0.0
 10
4.938449
 20
3.864539
 30
0.0
  0
SPLINE
  5
155
100
AcDbEntity
  8
horse_unicorn_preggo
 62
7
100
AcDbSpline
 70
8
 71
3
 72
8
 73
4
 74
0
 40
0
 40
0
 40
0
 40
0
 40
1
 40
1
 40
1
 40
1
 10
4.881397
 20
3.865965
 30
0.0
 10
4.937498
 20
3.811767
 30
0.0
 10
4.958417
 20
3.800832
 30
0.0
 10
5.024026
 20
3.791323
 30
0.0
  0
SPLINE
  5
156
100
AcDbEntity
  8
horse_unicorn_preggo
 62
7
100
AcDbSpline
 70
8
 71
3
 72
8
 73
4
 74
0
 40
0
 40
0
 40
0
 40
0
 40
1
 40
1
 40
1
 40
1
 10
5.024026
 20
3.791323
 30
0.0
 10
5.050174
 20
3.787044
 30
0.0
 10
5.085356
 20
3.781815
 30
0.0
 10
5.102471
 20
3.779438
 30
0.0
  0
LWPOLYLINE
  5
157
100
AcDbEntity
  8
horse_unicorn_preggo
 62
7
100
AcDbPolyline
 90
3
 70
0
 10
4.867134
 20
3.893540
 30
0.0
 10
4.833855
 20
3.912082
 30
0.0
 10
4.881397
 20
3.865965
 30
0.0
  0
SPLINE
  5
158
100
AcDbEntity
  8
horse_unicorn_preggo
 62
7
100
AcDbSpline
 70
8
 71
3
 72
8
 73
4
 74
0
 40
0
 40
0
 40
0
 40
0
 40
1
 40
1
 40
1
 40
1
 10
5.097717
 20
3.776585
 30
0.0
 10
5.035911
 20
3.780388
 30
0.0
 10
4.880922
 20
3.783716
 30
0.0
 10
4.890906
 20
3.780864
 30
0.0
  0
SPLINE
  5
159
100
AcDbEntity
  8
horse_unicorn_preggo
 62
7
100
AcDbSpline
 70
8
 71
3
 72
8
 73
4
 74
0
 40
0
 40
0
 40
0
 40
0
 40
1
 40
1
 40
1
 40
1
 10
4.890906
 20
3.780864
 30
0.0
 10
4.896136
 20
3.779913
 30
0.0
 10
4.919907
 20
3.774208
 30
0.0
 10
4.943203
 20
3.768978
 30
0.0
  0
LWPOLYLINE
  5
15a
100
AcDbEntity
  8
horse_unicorn_preggo
 62
7
100
AcDbPolyline
 90
3
 70
0
 10
5.102471
 20
3.779438
 30
0.0
 10
5.133374
 20
3.774683
 30
0.0
 10
5.097717
 20
3.776585
 30
0.0
  0
SPLINE
  5
15b
100
AcDbEntity
  8
horse_unicorn_preggo
 62
7
100
AcDbSpline
 70
8
 71
3
 72
8
 73
4
 74
0
 40
0
 40
0
 40
0
 40
0
 40
1
 40
1
 40
1
 40
1
 10
5.019271
 20
3.719058
 30
0.0
 10
5.037813
 20
3.697189
 30
0.0
 10
5.053027
 20
3.677221
 30
0.0
 10
5.053978
 20
3.674844
 30
0.0
  0
SPLINE
  5
15c
100
AcDbEntity
  8
horse_unicorn_preggo
 62
7
100
AcDbSpline
 70
8
 71
3
 72
8
 73
4
 74
0
 40
0
 40
0
 40
0
 40
0
 40
1
 40
1
 40
1
 40
1
 10
5.053978
 20
3.674844
 30
0.0
 10
5.056355
 20
3.668188
 30
0.0
 10
4.940826
 20
3.663433
 30
0.0
 10
4.921809
 20
3.669614
 30
0.0
  0
SPLINE
  5
15d
100
AcDbEntity
  8
horse_unicorn_preggo
 62
7
100
AcDbSpline
 70
8
 71
3
 72
8
 73
4
 74
0
 40
0
 40
0
 40
0
 40
0
 40
1
 40
1
 40
1
 40
1
 10
4.921809
 20
3.669614
 30
0.0
 10
4.912776
 20
3.671991
 30
0.0
 10
4.898037
 20
3.674368
 30
0.0
 10
4.889480
 20
3.674368
 30
0.0
  0
SPLINE
  5
15e
100
AcDbEntity
  8
horse_unicorn_preggo
 62
7
100
AcDbSpline
 70
8
 71
3
 72
8
 73
4
 74
0
 40
0
 40
0
 40
0
 40
0
 40
1
 40
1
 40
1
 40
1
 10
4.889480
 20
3.674368
 30
0.0
 10
4.864757
 20
3.674368
 30
0.0
 10
4.824346
 20
3.687680
 30
0.0
 10
4.810559
 20
3.700517
 30
0.0
  0
SPLINE
  5
15f
100
AcDbEntity
  8
horse_unicorn_preggo
 62
7
100
AcDbSpline
 70
8
 71
3
 72
8
 73
4
 74
0
 40
0
 40
0
 40
0
 40
0
 40
1
 40
1
 40
1
 40
1
 10
4.810559
 20
3.700517
 30
0.0
 10
4.784886
 20
3.724288
 30
0.0
 10
4.788214
 20
3.748059
 30
0.0
 10
4.822920
 20
3.787044
 30
0.0
  0
SPLINE
  5
160
100
AcDbEntity
  8
horse_unicorn_preggo
 62
7
100
AcDbSpline
 70
8
 71
3
 72
8
 73
4
 74
0
 40
0
 40
0
 40
0
 40
0
 40
1
 40
1
 40
1
 40
1
 10
4.822920
 20
3.787044
 30
0.0
 10
4.850970
 20
3.817472
 30
0.0
 10
4.849544
 20
3.816996
 30
0.0
 10
4.797247
 20
3.774683
 30
0.0
  0
SPLINE
  5
161
100
AcDbEntity
  8
horse_unicorn_preggo
 62
7
100
AcDbSpline
 70
8
 71
3
 72
8
 73
4
 74
0
 40
0
 40
0
 40
0
 40
0
 40
1
 40
1
 40
1
 40
1
 10
4.797247
 20
3.774683
 30
0.0
 10
4.776803
 20
3.758519
 30
0.0
 10
4.758262
 20
3.740928
 30
0.0
 10
4.755409
 20
3.736174
 30
0.0
  0
SPLINE
  5
162
100
AcDbEntity
  8
horse_unicorn_preggo
 62
7
100
AcDbSpline
 70
8
 71
3
 72
8
 73
4
 74
0
 40
0
 40
0
 40
0
 40
0
 40
1
 40
1
 40
1
 40
1
 10
4.755409
 20
3.736174
 30
0.0
 10
4.740671
 20
3.709074
 30
0.0
 10
4.756835
 20
3.689582
 30
0.0
 10
4.819592
 20
3.659154
 30
0.0
  0
SPLINE
  5
163
100
AcDbEntity
  8
horse_unicorn_preggo
 62
7
100
AcDbSpline
 70
8
 71
3
 72
8
 73
4
 74
0
 40
0
 40
0
 40
0
 40
0
 40
1
 40
1
 40
1
 40
1
 10
4.819592
 20
3.659154
 30
0.0
 10
4.840511
 20
3.648695
 30
0.0
 10
4.852396
 20
3.641564
 30
0.0
 10
4.845740
 20
3.642990
 30
0.0
  0
SPLINE
  5
164
100
AcDbEntity
  8
horse_unicorn_preggo
 62
7
100
AcDbSpline
 70
8
 71
3
 72
8
 73
4
 74
0
 40
0
 40
0
 40
0
 40
0
 40
1
 40
1
 40
1
 40
1
 10
4.845740
 20
3.642990
 30
0.0
 10
4.820067
 20
3.648220
 30
0.0
 10
4.745900
 20
3.659630
 30
0.0
 10
4.704538
 20
3.665335
 30
0.0
  0
SPLINE
  5
165
100
AcDbEntity
  8
horse_unicorn_preggo
 62
7
100
AcDbSpline
 70
8
 71
3
 72
8
 73
4
 74
0
 40
0
 40
0
 40
0
 40
0
 40
1
 40
1
 40
1
 40
1
 10
4.704538
 20
3.665335
 30
0.0
 10
4.654143
 20
3.671991
 30
0.0
 10
4.546221
 20
3.668663
 30
0.0
 10
4.498678
 20
3.659630
 30
0.0
  0
LWPOLYLINE
  5
166
100
AcDbEntity
  8
horse_unicorn_preggo
 62
7
100
AcDbPolyline
 90
3
 70
0
 10
4.943203
 20
3.768978
 30
0.0
 10
4.985991
 20
3.759470
 30
0.0
 10
5.019271
 20
3.719058
 30
0.0
  0
SPLINE
  5
167
100
AcDbEntity
  8
horse_unicorn_preggo
 62
7
100
AcDbSpline
 70
8
 71
3
 72
8
 73
4
 74
0
 40
0
 40
0
 40
0
 40
0
 40
1
 40
1
 40
1
 40
1
 10
4.498678
 20
3.649170
 30
0.0
 10
4.520072
 20
3.646318
 30
0.0
 10
4.539565
 20
3.646793
 30
0.0
 10
4.562385
 20
3.651072
 30
0.0
  0
SPLINE
  5
168
100
AcDbEntity
  8
horse_unicorn_preggo
 62
7
100
AcDbSpline
 70
8
 71
3
 72
8
 73
4
 74
0
 40
0
 40
0
 40
0
 40
0
 40
1
 40
1
 40
1
 40
1
 10
4.562385
 20
3.651072
 30
0.0
 10
4.606125
 20
3.659154
 30
0.0
 10
4.651766
 20
3.652498
 30
0.0
 10
4.697882
 20
3.631104
 30
0.0
  0
LWPOLYLINE
  5
169
100
AcDbEntity
  8
horse_unicorn_preggo
 62
7
100
AcDbPolyline
 90
3
 70
0
 10
4.498678
 20
3.659630
 30
0.0
 10
4.467775
 20
3.653449
 30
0.0
 10
4.498678
 20
3.649170
 30
0.0
  0
SPLINE
  5
16a
100
AcDbEntity
  8
horse_unicorn_preggo
 62
7
100
AcDbSpline
 70
8
 71
3
 72
8
 73
4
 74
0
 40
0
 40
0
 40
0
 40
0
 40
1
 40
1
 40
1
 40
1
 10
4.558107
 20
3.619219
 30
0.0
 10
4.516269
 20
3.629203
 30
0.0
 10
4.477759
 20
3.637760
 30
0.0
 10
4.472530
 20
3.639186
 30
0.0
  0
SPLINE
  5
16b
100
AcDbEntity
  8
horse_unicorn_preggo
 62
7
100
AcDbSpline
 70
8
 71
3
 72
8
 73
4
 74
0
 40
0
 40
0
 40
0
 40
0
 40
1
 40
1
 40
1
 40
1
 10
4.472530
 20
3.639186
 30
0.0
 10
4.449709
 20
3.644892
 30
0.0
 10
4.489645
 20
3.621120
 30
0.0
 10
4.542418
 20
3.597349
 30
0.0
  0
SPLINE
  5
16c
100
AcDbEntity
  8
horse_unicorn_preggo
 62
7
100
AcDbSpline
 70
8
 71
3
 72
8
 73
4
 74
0
 40
0
 40
0
 40
0
 40
0
 40
1
 40
1
 40
1
 40
1
 10
4.542418
 20
3.597349
 30
0.0
 10
4.573320
 20
3.583561
 30
0.0
 10
4.595665
 20
3.571200
 30
0.0
 10
4.592337
 20
3.570250
 30
0.0
  0
SPLINE
  5
16d
100
AcDbEntity
  8
horse_unicorn_preggo
 62
7
100
AcDbSpline
 70
8
 71
3
 72
8
 73
4
 74
0
 40
0
 40
0
 40
0
 40
0
 40
1
 40
1
 40
1
 40
1
 10
4.592337
 20
3.570250
 30
0.0
 10
4.585206
 20
3.567872
 30
0.0
 10
4.403593
 20
3.427146
 30
0.0
 10
4.403593
 20
3.424293
 30
0.0
  0
SPLINE
  5
16e
100
AcDbEntity
  8
horse_unicorn_preggo
 62
7
100
AcDbSpline
 70
8
 71
3
 72
8
 73
4
 74
0
 40
0
 40
0
 40
0
 40
0
 40
1
 40
1
 40
1
 40
1
 10
4.403593
 20
3.424293
 30
0.0
 10
4.403593
 20
3.422867
 30
0.0
 10
4.405019
 20
3.422867
 30
0.0
 10
4.407396
 20
3.423818
 30
0.0
  0
SPLINE
  5
16f
100
AcDbEntity
  8
horse_unicorn_preggo
 62
7
100
AcDbSpline
 70
8
 71
3
 72
8
 73
4
 74
0
 40
0
 40
0
 40
0
 40
0
 40
1
 40
1
 40
1
 40
1
 10
4.407396
 20
3.423818
 30
0.0
 10
4.410249
 20
3.425720
 30
0.0
 10
4.499629
 20
3.464229
 30
0.0
 10
4.554779
 20
3.487525
 30
0.0
  0
LWPOLYLINE
  5
170
100
AcDbEntity
  8
horse_unicorn_preggo
 62
7
100
AcDbPolyline
 90
5
 70
0
 10
4.697882
 20
3.631104
 30
0.0
 10
4.733539
 20
3.614464
 30
0.0
 10
4.683619
 20
3.608284
 30
0.0
 10
4.634175
 20
3.602103
 30
0.0
 10
4.558107
 20
3.619219
 30
0.0
  0
SPLINE
  5
171
100
AcDbEntity
  8
horse_unicorn_preggo
 62
7
100
AcDbSpline
 70
8
 71
3
 72
8
 73
4
 74
0
 40
0
 40
0
 40
0
 40
0
 40
1
 40
1
 40
1
 40
1
 10
4.567615
 20
3.478492
 30
0.0
 10
4.565713
 20
3.469934
 30
0.0
 10
4.554779
 20
3.445212
 30
0.0
 10
4.543844
 20
3.423818
 30
0.0
  0
LWPOLYLINE
  5
172
100
AcDbEntity
  8
horse_unicorn_preggo
 62
7
100
AcDbPolyline
 90
3
 70
0
 10
4.554779
 20
3.487525
 30
0.0
 10
4.570943
 20
3.494181
 30
0.0
 10
4.567615
 20
3.478492
 30
0.0
  0
SPLINE
  5
173
100
AcDbEntity
  8
horse_unicorn_preggo
 62
7
100
AcDbSpline
 70
8
 71
3
 72
8
 73
4
 74
0
 40
0
 40
0
 40
0
 40
0
 40
1
 40
1
 40
1
 40
1
 10
4.554303
 20
3.417637
 30
0.0
 10
4.571419
 20
3.436179
 30
0.0
 10
4.589960
 20
3.453770
 30
0.0
 10
4.595665
 20
3.456622
 30
0.0
  0
SPLINE
  5
174
100
AcDbEntity
  8
horse_unicorn_preggo
 62
7
100
AcDbSpline
 70
8
 71
3
 72
8
 73
4
 74
0
 40
0
 40
0
 40
0
 40
0
 40
1
 40
1
 40
1
 40
1
 10
4.595665
 20
3.456622
 30
0.0
 10
4.613256
 20
3.466131
 30
0.0
 10
4.642733
 20
3.469459
 30
0.0
 10
4.672209
 20
3.465180
 30
0.0
  0
SPLINE
  5
175
100
AcDbEntity
  8
horse_unicorn_preggo
 62
7
100
AcDbSpline
 70
8
 71
3
 72
8
 73
4
 74
0
 40
0
 40
0
 40
0
 40
0
 40
1
 40
1
 40
1
 40
1
 10
4.672209
 20
3.465180
 30
0.0
 10
4.687898
 20
3.462803
 30
0.0
 10
4.718801
 20
3.458524
 30
0.0
 10
4.741146
 20
3.455196
 30
0.0
  0
SPLINE
  5
176
100
AcDbEntity
  8
horse_unicorn_preggo
 62
7
100
AcDbSpline
 70
8
 71
3
 72
8
 73
4
 74
0
 40
0
 40
0
 40
0
 40
0
 40
1
 40
1
 40
1
 40
1
 10
4.741146
 20
3.455196
 30
0.0
 10
4.763491
 20
3.451868
 30
0.0
 10
4.785361
 20
3.448065
 30
0.0
 10
4.790115
 20
3.446638
 30
0.0
  0
SPLINE
  5
177
100
AcDbEntity
  8
horse_unicorn_preggo
 62
7
100
AcDbSpline
 70
8
 71
3
 72
8
 73
4
 74
0
 40
0
 40
0
 40
0
 40
0
 40
1
 40
1
 40
1
 40
1
 10
4.790115
 20
3.446638
 30
0.0
 10
4.796296
 20
3.444261
 30
0.0
 10
4.778230
 20
3.434753
 30
0.0
 10
4.730687
 20
3.413834
 30
0.0
  0
SPLINE
  5
178
100
AcDbEntity
  8
horse_unicorn_preggo
 62
7
100
AcDbSpline
 70
8
 71
3
 72
8
 73
4
 74
0
 40
0
 40
0
 40
0
 40
0
 40
1
 40
1
 40
1
 40
1
 10
4.730687
 20
3.413834
 30
0.0
 10
4.648438
 20
3.378177
 30
0.0
 10
4.636077
 20
3.373898
 30
0.0
 10
4.560959
 20
3.352979
 30
0.0
  0
SPLINE
  5
179
100
AcDbEntity
  8
horse_unicorn_preggo
 62
7
100
AcDbSpline
 70
8
 71
3
 72
8
 73
4
 74
0
 40
0
 40
0
 40
0
 40
0
 40
1
 40
1
 40
1
 40
1
 10
4.560959
 20
3.352979
 30
0.0
 10
4.506285
 20
3.338241
 30
0.0
 10
4.496776
 20
3.336815
 30
0.0
 10
4.434020
 20
3.336815
 30
0.0
  0
SPLINE
  5
17a
100
AcDbEntity
  8
horse_unicorn_preggo
 62
7
100
AcDbSpline
 70
8
 71
3
 72
8
 73
4
 74
0
 40
0
 40
0
 40
0
 40
0
 40
1
 40
1
 40
1
 40
1
 10
4.434020
 20
3.336815
 30
0.0
 10
4.355099
 20
3.336815
 30
0.0
 10
4.182405
 20
4.286417
 30
0.0
 10
4.108714
 20
4.304008
 30
0.0
  0
SPLINE
  5
17b
100
AcDbEntity
  8
horse_unicorn_preggo
 62
7
100
AcDbSpline
 70
8
 71
3
 72
8
 73
4
 74
0
 40
0
 40
0
 40
0
 40
0
 40
1
 40
1
 40
1
 40
1
 10
4.108714
 20
4.304008
 30
0.0
 10
4.060696
 20
4.315894
 30
0.0
 10
3.933395
 20
3.424293
 30
0.0
 10
3.844965
 20
3.449966
 30
0.0
  0
SPLINE
  5
17c
100
AcDbEntity
  8
horse_unicorn_preggo
 62
7
100
AcDbSpline
 70
8
 71
3
 72
8
 73
4
 74
0
 40
0
 40
0
 40
0
 40
0
 40
1
 40
1
 40
1
 40
1
 10
3.844965
 20
3.449966
 30
0.0
 10
3.818817
 20
3.457573
 30
0.0
 10
3.772700
 20
3.469934
 30
0.0
 10
3.742748
 20
3.477066
 30
0.0
  0
SPLINE
  5
17d
100
AcDbEntity
  8
horse_unicorn_preggo
 62
7
100
AcDbSpline
 70
8
 71
3
 72
8
 73
4
 74
0
 40
0
 40
0
 40
0
 40
0
 40
1
 40
1
 40
1
 40
1
 10
3.742748
 20
3.477066
 30
0.0
 10
3.712797
 20
3.484197
 30
0.0
 10
3.766044
 20
3.469934
 30
0.0
 10
3.742748
 20
3.477066
 30
0.0
  0
SPLINE
  5
17e
100
AcDbEntity
  8
horse_unicorn_preggo
 62
7
100
AcDbSpline
 70
8
 71
3
 72
8
 73
4
 74
0
 40
0
 40
0
 40
0
 40
0
 40
1
 40
1
 40
1
 40
1
 10
3.742748
 20
3.477066
 30
0.0
 10
3.719928
 20
3.484673
 30
0.0
 10
3.917073
 20
4.345277
 30
0.0
 10
3.545808
 20
4.356250
 30
0.0
  0
SPLINE
  5
17f
100
AcDbEntity
  8
horse_unicorn_preggo
 62
7
100
AcDbSpline
 70
8
 71
3
 72
8
 73
4
 74
0
 40
0
 40
0
 40
0
 40
0
 40
1
 40
1
 40
1
 40
1
 10
3.545808
 20
4.356250
 30
0.0
 10
3.058559
 20
4.094275
 30
0.0
 10
3.374750
 20
3.559828
 30
0.0
 10
3.321502
 20
3.586452
 30
0.0
  0
SPLINE
  5
180
100
AcDbEntity
  8
horse_unicorn_preggo
 62
7
100
AcDbSpline
 70
8
 71
3
 72
8
 73
4
 74
0
 40
0
 40
0
 40
0
 40
0
 40
1
 40
1
 40
1
 40
1
 10
3.321502
 20
3.586452
 30
0.0
 10
3.198842
 20
3.647307
 30
0.0
 10
3.214073
 20
3.655351
 30
0.0
 10
3.026279
 20
3.655351
 30
0.0
  0
SPLINE
  5
181
100
AcDbEntity
  8
horse_unicorn_preggo
 62
7
100
AcDbSpline
 70
8
 71
3
 72
8
 73
4
 74
0
 40
0
 40
0
 40
0
 40
0
 40
1
 40
1
 40
1
 40
1
 10
3.026279
 20
3.655351
 30
0.0
 10
2.910750
 20
3.655351
 30
0.0
 10
2.886979
 20
3.653449
 30
0.0
 10
2.789992
 20
3.635859
 30
0.0
  0
SPLINE
  5
182
100
AcDbEntity
  8
horse_unicorn_preggo
 62
7
100
AcDbSpline
 70
8
 71
3
 72
8
 73
4
 74
0
 40
0
 40
0
 40
0
 40
0
 40
1
 40
1
 40
1
 40
1
 10
2.789992
 20
3.635859
 30
0.0
 10
2.732940
 20
3.625399
 30
0.0
 10
2.605526
 20
3.580233
 30
0.0
 10
2.520900
 20
3.540298
 30
0.0
  0
SPLINE
  5
183
100
AcDbEntity
  8
horse_unicorn_preggo
 62
7
100
AcDbSpline
 70
8
 71
3
 72
8
 73
4
 74
0
 40
0
 40
0
 40
0
 40
0
 40
1
 40
1
 40
1
 40
1
 10
2.520900
 20
3.540298
 30
0.0
 10
2.493325
 20
3.526986
 30
0.0
 10
2.461947
 20
3.512723
 30
0.0
 10
2.451487
 20
3.507969
 30
0.0
  0
SPLINE
  5
184
100
AcDbEntity
  8
horse_unicorn_preggo
 62
7
100
AcDbSpline
 70
8
 71
3
 72
8
 73
4
 74
0
 40
0
 40
0
 40
0
 40
0
 40
1
 40
1
 40
1
 40
1
 10
2.451487
 20
3.507969
 30
0.0
 10
2.440553
 20
3.503214
 30
0.0
 10
2.422962
 20
3.493706
 30
0.0
 10
2.412027
 20
3.486574
 30
0.0
  0
SPLINE
  5
185
100
AcDbEntity
  8
horse_unicorn_preggo
 62
7
100
AcDbSpline
 70
8
 71
3
 72
8
 73
4
 74
0
 40
0
 40
0
 40
0
 40
0
 40
1
 40
1
 40
1
 40
1
 10
2.412027
 20
3.486574
 30
0.0
 10
2.401092
 20
3.479918
 30
0.0
 10
2.365910
 20
3.461377
 30
0.0
 10
2.334057
 20
3.445212
 30
0.0
  0
SPLINE
  5
186
100
AcDbEntity
  8
horse_unicorn_preggo
 62
7
100
AcDbSpline
 70
8
 71
3
 72
8
 73
4
 74
0
 40
0
 40
0
 40
0
 40
0
 40
1
 40
1
 40
1
 40
1
 10
2.334057
 20
3.445212
 30
0.0
 10
2.302203
 20
3.429523
 30
0.0
 10
2.262743
 20
3.407178
 30
0.0
 10
2.246578
 20
3.396243
 30
0.0
  0
SPLINE
  5
187
100
AcDbEntity
  8
horse_unicorn_preggo
 62
7
100
AcDbSpline
 70
8
 71
3
 72
8
 73
4
 74
0
 40
0
 40
0
 40
0
 40
0
 40
1
 40
1
 40
1
 40
1
 10
2.246578
 20
3.396243
 30
0.0
 10
2.230414
 20
3.384833
 30
0.0
 10
2.193806
 20
3.366291
 30
0.0
 10
2.165280
 20
3.353930
 30
0.0
  0
SPLINE
  5
188
100
AcDbEntity
  8
horse_unicorn_preggo
 62
7
100
AcDbSpline
 70
8
 71
3
 72
8
 73
4
 74
0
 40
0
 40
0
 40
0
 40
0
 40
1
 40
1
 40
1
 40
1
 10
2.165280
 20
3.353930
 30
0.0
 10
2.116311
 20
3.333487
 30
0.0
 10
2.110606
 20
3.332060
 30
0.0
 10
2.070670
 20
3.332060
 30
0.0
  0
SPLINE
  5
189
100
AcDbEntity
  8
horse_unicorn_preggo
 62
7
100
AcDbSpline
 70
8
 71
3
 72
8
 73
4
 74
0
 40
0
 40
0
 40
0
 40
0
 40
1
 40
1
 40
1
 40
1
 10
2.070670
 20
3.332060
 30
0.0
 10
2.032160
 20
3.332060
 30
0.0
 10
2.025504
 20
3.330634
 30
0.0
 10
1.993651
 20
3.315420
 30
0.0
  0
SPLINE
  5
18a
100
AcDbEntity
  8
horse_unicorn_preggo
 62
7
100
AcDbSpline
 70
8
 71
3
 72
8
 73
4
 74
0
 40
0
 40
0
 40
0
 40
0
 40
1
 40
1
 40
1
 40
1
 10
1.993651
 20
3.315420
 30
0.0
 10
1.938026
 20
3.288796
 30
0.0
 10
1.796348
 20
3.185153
 30
0.0
 10
1.697935
 20
3.099101
 30
0.0
  0
SPLINE
  5
18b
100
AcDbEntity
  8
horse_unicorn_preggo
 62
7
100
AcDbSpline
 70
8
 71
3
 72
8
 73
4
 74
0
 40
0
 40
0
 40
0
 40
0
 40
1
 40
1
 40
1
 40
1
 10
1.697935
 20
3.099101
 30
0.0
 10
1.678442
 20
3.081985
 30
0.0
 10
1.646113
 20
3.055837
 30
0.0
 10
1.626621
 20
3.041099
 30
0.0
  0
SPLINE
  5
18c
100
AcDbEntity
  8
horse_unicorn_preggo
 62
7
100
AcDbSpline
 70
8
 71
3
 72
8
 73
4
 74
0
 40
0
 40
0
 40
0
 40
0
 40
1
 40
1
 40
1
 40
1
 10
1.626621
 20
3.041099
 30
0.0
 10
1.607128
 20
3.026360
 30
0.0
 10
1.570996
 20
2.995458
 30
0.0
 10
1.546273
 20
2.972637
 30
0.0
  0
SPLINE
  5
18d
100
AcDbEntity
  8
horse_unicorn_preggo
 62
7
100
AcDbSpline
 70
8
 71
3
 72
8
 73
4
 74
0
 40
0
 40
0
 40
0
 40
0
 40
1
 40
1
 40
1
 40
1
 10
1.546273
 20
2.972637
 30
0.0
 10
1.495878
 20
2.926045
 30
0.0
 10
1.440253
 20
2.888011
 30
0.0
 10
1.387005
 20
2.863289
 30
0.0
  0
SPLINE
  5
18e
100
AcDbEntity
  8
horse_unicorn_preggo
 62
7
100
AcDbSpline
 70
8
 71
3
 72
8
 73
4
 74
0
 40
0
 40
0
 40
0
 40
0
 40
1
 40
1
 40
1
 40
1
 10
1.387005
 20
2.863289
 30
0.0
 10
1.319494
 20
2.832386
 30
0.0
 10
1.263869
 20
2.829058
 30
0.0
 10
1.209195
 20
2.853780
 30
0.0
  0
SPLINE
  5
18f
100
AcDbEntity
  8
horse_unicorn_preggo
 62
7
100
AcDbSpline
 70
8
 71
3
 72
8
 73
4
 74
0
 40
0
 40
0
 40
0
 40
0
 40
1
 40
1
 40
1
 40
1
 10
1.209195
 20
2.853780
 30
0.0
 10
1.193982
 20
2.860436
 30
0.0
 10
1.151669
 20
2.872322
 30
0.0
 10
1.115536
 20
2.879929
 30
0.0
  0
SPLINE
  5
190
100
AcDbEntity
  8
horse_unicorn_preggo
 62
7
100
AcDbSpline
 70
8
 71
3
 72
8
 73
4
 74
0
 40
0
 40
0
 40
0
 40
0
 40
1
 40
1
 40
1
 40
1
 10
1.115536
 20
2.879929
 30
0.0
 10
1.078928
 20
2.888011
 30
0.0
 10
1.031385
 20
2.899421
 30
0.0
 10
1.009516
 20
2.906077
 30
0.0
  0
SPLINE
  5
191
100
AcDbEntity
  8
horse_unicorn_preggo
 62
7
100
AcDbSpline
 70
8
 71
3
 72
8
 73
4
 74
0
 40
0
 40
0
 40
0
 40
0
 40
1
 40
1
 40
1
 40
1
 10
1.009516
 20
2.906077
 30
0.0
 10
0.929169
 20
2.930800
 30
0.0
 10
0.898741
 20
2.927472
 30
0.0
 10
0.813164
 20
2.886585
 30
0.0
  0
SPLINE
  5
192
100
AcDbEntity
  8
horse_unicorn_preggo
 62
7
100
AcDbSpline
 70
8
 71
3
 72
8
 73
4
 74
0
 40
0
 40
0
 40
0
 40
0
 40
1
 40
1
 40
1
 40
1
 10
0.813164
 20
2.886585
 30
0.0
 10
0.782261
 20
2.871847
 30
0.0
 10
0.757539
 20
2.859485
 30
0.0
 10
0.758490
 20
2.858535
 30
0.0
  0
SPLINE
  5
193
100
AcDbEntity
  8
horse_unicorn_preggo
 62
7
100
AcDbSpline
 70
8
 71
3
 72
8
 73
4
 74
0
 40
0
 40
0
 40
0
 40
0
 40
1
 40
1
 40
1
 40
1
 10
0.758490
 20
2.858535
 30
0.0
 10
0.758965
 20
2.858059
 30
0.0
 10
0.772277
 20
2.860436
 30
0.0
 10
0.787967
 20
2.863764
 30
0.0
  0
SPLINE
  5
194
100
AcDbEntity
  8
horse_unicorn_preggo
 62
7
100
AcDbSpline
 70
8
 71
3
 72
8
 73
4
 74
0
 40
0
 40
0
 40
0
 40
0
 40
1
 40
1
 40
1
 40
1
 10
0.787967
 20
2.863764
 30
0.0
 10
0.803656
 20
2.867568
 30
0.0
 10
0.836936
 20
2.873273
 30
0.0
 10
0.861658
 20
2.876125
 30
0.0
  0
LWPOLYLINE
  5
195
100
AcDbEntity
  8
horse_unicorn_preggo
 62
7
100
AcDbPolyline
 90
3
 70
0
 10
4.543844
 20
3.423818
 30
0.0
 10
4.523400
 20
3.384357
 30
0.0
 10
4.554303
 20
3.417637
 30
0.0
  0
SPLINE
  5
196
100
AcDbEntity
  8
horse_unicorn_preggo
 62
7
100
AcDbSpline
 70
8
 71
3
 72
8
 73
4
 74
0
 40
0
 40
0
 40
0
 40
0
 40
1
 40
1
 40
1
 40
1
 10
0.994778
 20
2.856633
 30
0.0
 10
1.043271
 20
2.842845
 30
0.0
 10
1.087961
 20
2.830009
 30
0.0
 10
1.094617
 20
2.828107
 30
0.0
  0
SPLINE
  5
197
100
AcDbEntity
  8
horse_unicorn_preggo
 62
7
100
AcDbSpline
 70
8
 71
3
 72
8
 73
4
 74
0
 40
0
 40
0
 40
0
 40
0
 40
1
 40
1
 40
1
 40
1
 10
1.094617
 20
2.828107
 30
0.0
 10
1.102700
 20
2.825255
 30
0.0
 10
1.090338
 20
2.823828
 30
0.0
 10
1.058960
 20
2.823828
 30
0.0
  0
SPLINE
  5
198
100
AcDbEntity
  8
horse_unicorn_preggo
 62
7
100
AcDbSpline
 70
8
 71
3
 72
8
 73
4
 74
0
 40
0
 40
0
 40
0
 40
0
 40
1
 40
1
 40
1
 40
1
 10
1.058960
 20
2.823828
 30
0.0
 10
0.908250
 20
2.821927
 30
0.0
 10
0.733768
 20
2.813369
 30
0.0
 10
0.707619
 20
2.806713
 30
0.0
  0
SPLINE
  5
199
100
AcDbEntity
  8
horse_unicorn_preggo
 62
7
100
AcDbSpline
 70
8
 71
3
 72
8
 73
4
 74
0
 40
0
 40
0
 40
0
 40
0
 40
1
 40
1
 40
1
 40
1
 10
0.707619
 20
2.806713
 30
0.0
 10
0.668634
 20
2.796254
 30
0.0
 10
0.628698
 20
2.779614
 30
0.0
 10
0.597320
 20
2.761072
 30
0.0
  0
SPLINE
  5
19a
100
AcDbEntity
  8
horse_unicorn_preggo
 62
7
100
AcDbSpline
 70
8
 71
3
 72
8
 73
4
 74
0
 40
0
 40
0
 40
0
 40
0
 40
1
 40
1
 40
1
 40
1
 10
0.597320
 20
2.761072
 30
0.0
 10
0.568319
 20
2.743481
 30
0.0
 10
0.520776
 20
2.701643
 30
0.0
 10
0.535990
 20
2.707349
 30
0.0
  0
SPLINE
  5
19b
100
AcDbEntity
  8
horse_unicorn_preggo
 62
7
100
AcDbSpline
 70
8
 71
3
 72
8
 73
4
 74
0
 40
0
 40
0
 40
0
 40
0
 40
1
 40
1
 40
1
 40
1
 10
0.535990
 20
2.707349
 30
0.0
 10
0.606829
 20
2.733022
 30
0.0
 10
0.688127
 20
2.758695
 30
0.0
 10
0.726161
 20
2.766777
 30
0.0
  0
SPLINE
  5
19c
100
AcDbEntity
  8
horse_unicorn_preggo
 62
7
100
AcDbSpline
 70
8
 71
3
 72
8
 73
4
 74
0
 40
0
 40
0
 40
0
 40
0
 40
1
 40
1
 40
1
 40
1
 10
0.726161
 20
2.766777
 30
0.0
 10
0.809361
 20
2.784368
 30
0.0
 10
0.967678
 20
2.779138
 30
0.0
 10
1.061337
 20
2.754891
 30
0.0
  0
SPLINE
  5
19d
100
AcDbEntity
  8
horse_unicorn_preggo
 62
7
100
AcDbSpline
 70
8
 71
3
 72
8
 73
4
 74
0
 40
0
 40
0
 40
0
 40
0
 40
1
 40
1
 40
1
 40
1
 10
1.061337
 20
2.754891
 30
0.0
 10
1.105552
 20
2.743957
 30
0.0
 10
1.205392
 20
2.708775
 30
0.0
 10
1.202064
 20
2.705922
 30
0.0
  0
SPLINE
  5
19e
100
AcDbEntity
  8
horse_unicorn_preggo
 62
7
100
AcDbSpline
 70
8
 71
3
 72
8
 73
4
 74
0
 40
0
 40
0
 40
0
 40
0
 40
1
 40
1
 40
1
 40
1
 10
1.202064
 20
2.705922
 30
0.0
 10
1.201113
 20
2.704971
 30
0.0
 10
1.096044
 20
2.702119
 30
0.0
 10
0.968154
 20
2.699742
 30
0.0
  0
SPLINE
  5
19f
100
AcDbEntity
  8
horse_unicorn_preggo
 62
7
100
AcDbSpline
 70
8
 71
3
 72
8
 73
4
 74
0
 40
0
 40
0
 40
0
 40
0
 40
1
 40
1
 40
1
 40
1
 10
0.968154
 20
2.699742
 30
0.0
 10
0.700963
 20
2.694037
 30
0.0
 10
0.620616
 20
2.689758
 30
0.0
 10
0.540744
 20
2.675495
 30
0.0
  0
SPLINE
  5
1a0
100
AcDbEntity
  8
horse_unicorn_preggo
 62
7
100
AcDbSpline
 70
8
 71
3
 72
8
 73
4
 74
0
 40
0
 40
0
 40
0
 40
0
 40
1
 40
1
 40
1
 40
1
 10
0.540744
 20
2.675495
 30
0.0
 10
0.509366
 20
2.670265
 30
0.0
 10
0.461348
 20
2.662658
 30
0.0
 10
0.433773
 20
2.659330
 30
0.0
  0
SPLINE
  5
1a1
100
AcDbEntity
  8
horse_unicorn_preggo
 62
7
100
AcDbSpline
 70
8
 71
3
 72
8
 73
4
 74
0
 40
0
 40
0
 40
0
 40
0
 40
1
 40
1
 40
1
 40
1
 10
0.433773
 20
2.659330
 30
0.0
 10
0.245979
 20
2.635559
 30
0.0
 10
0.201764
 20
2.626050
 30
0.0
 10
0.123319
 20
2.591820
 30
0.0
  0
SPLINE
  5
1a2
100
AcDbEntity
  8
horse_unicorn_preggo
 62
7
100
AcDbSpline
 70
8
 71
3
 72
8
 73
4
 74
0
 40
0
 40
0
 40
0
 40
0
 40
1
 40
1
 40
1
 40
1
 10
0.123319
 20
2.591820
 30
0.0
 10
0.079104
 20
2.572803
 30
0.0
 10
0.007790
 20
2.563294
 30
0.0
 10
-0.098706
 20
2.561392
 30
0.0
  0
SPLINE
  5
1a3
100
AcDbEntity
  8
horse_unicorn_preggo
 62
7
100
AcDbSpline
 70
8
 71
3
 72
8
 73
4
 74
0
 40
0
 40
0
 40
0
 40
0
 40
1
 40
1
 40
1
 40
1
 10
-0.098706
 20
2.561392
 30
0.0
 10
-0.147675
 20
2.560917
 30
0.0
 10
-0.160511
 20
2.559491
 30
0.0
 10
-0.143871
 20
2.557114
 30
0.0
  0
SPLINE
  5
1a4
100
AcDbEntity
  8
horse_unicorn_preggo
 62
7
100
AcDbSpline
 70
8
 71
3
 72
8
 73
4
 74
0
 40
0
 40
0
 40
0
 40
0
 40
1
 40
1
 40
1
 40
1
 10
-0.143871
 20
2.557114
 30
0.0
 10
-0.129133
 20
2.555212
 30
0.0
 10
-0.124379
 20
2.553310
 30
0.0
 10
-0.131986
 20
2.552359
 30
0.0
  0
SPLINE
  5
1a5
100
AcDbEntity
  8
horse_unicorn_preggo
 62
7
100
AcDbSpline
 70
8
 71
3
 72
8
 73
4
 74
0
 40
0
 40
0
 40
0
 40
0
 40
1
 40
1
 40
1
 40
1
 10
-0.131986
 20
2.552359
 30
0.0
 10
-0.156232
 20
2.549507
 30
0.0
 10
-0.074459
 20
2.543802
 30
0.0
 10
0.005413
 20
2.543326
 30
0.0
  0
SPLINE
  5
1a6
100
AcDbEntity
  8
horse_unicorn_preggo
 62
7
100
AcDbSpline
 70
8
 71
3
 72
8
 73
4
 74
0
 40
0
 40
0
 40
0
 40
0
 40
1
 40
1
 40
1
 40
1
 10
0.005413
 20
2.543326
 30
0.0
 10
0.084334
 20
2.542851
 30
0.0
 10
0.090039
 20
2.543326
 30
0.0
 10
0.131401
 20
2.556638
 30
0.0
  0
SPLINE
  5
1a7
100
AcDbEntity
  8
horse_unicorn_preggo
 62
7
100
AcDbSpline
 70
8
 71
3
 72
8
 73
4
 74
0
 40
0
 40
0
 40
0
 40
0
 40
1
 40
1
 40
1
 40
1
 10
0.131401
 20
2.556638
 30
0.0
 10
0.155173
 20
2.564245
 30
0.0
 10
0.195108
 20
2.573753
 30
0.0
 10
0.219831
 20
2.578032
 30
0.0
  0
SPLINE
  5
1a8
100
AcDbEntity
  8
horse_unicorn_preggo
 62
7
100
AcDbSpline
 70
8
 71
3
 72
8
 73
4
 74
0
 40
0
 40
0
 40
0
 40
0
 40
1
 40
1
 40
1
 40
1
 10
0.219831
 20
2.578032
 30
0.0
 10
0.274980
 20
2.587541
 30
0.0
 10
0.405723
 20
2.596099
 30
0.0
 10
0.467053
 20
2.594197
 30
0.0
  0
LWPOLYLINE
  5
1a9
100
AcDbEntity
  8
horse_unicorn_preggo
 62
7
100
AcDbPolyline
 90
3
 70
0
 10
0.861658
 20
2.876125
 30
0.0
 10
0.906823
 20
2.881355
 30
0.0
 10
0.994778
 20
2.856633
 30
0.0
  0
SPLINE
  5
1aa
100
AcDbEntity
  8
horse_unicorn_preggo
 62
7
100
AcDbSpline
 70
8
 71
3
 72
8
 73
4
 74
0
 40
0
 40
0
 40
0
 40
0
 40
1
 40
1
 40
1
 40
1
 10
0.419510
 20
2.577557
 30
0.0
 10
0.368639
 20
2.568999
 30
0.0
 10
0.306834
 20
2.559966
 30
0.0
 10
0.282112
 20
2.557114
 30
0.0
  0
SPLINE
  5
1ab
100
AcDbEntity
  8
horse_unicorn_preggo
 62
7
100
AcDbSpline
 70
8
 71
3
 72
8
 73
4
 74
0
 40
0
 40
0
 40
0
 40
0
 40
1
 40
1
 40
1
 40
1
 10
0.282112
 20
2.557114
 30
0.0
 10
0.257865
 20
2.554261
 30
0.0
 10
0.228864
 20
2.548080
 30
0.0
 10
0.217929
 20
2.543326
 30
0.0
  0
SPLINE
  5
1ac
100
AcDbEntity
  8
horse_unicorn_preggo
 62
7
100
AcDbSpline
 70
8
 71
3
 72
8
 73
4
 74
0
 40
0
 40
0
 40
0
 40
0
 40
1
 40
1
 40
1
 40
1
 10
0.217929
 20
2.543326
 30
0.0
 10
0.207470
 20
2.538572
 30
0.0
 10
0.168009
 20
2.524309
 30
0.0
 10
0.130926
 20
2.511948
 30
0.0
  0
SPLINE
  5
1ad
100
AcDbEntity
  8
horse_unicorn_preggo
 62
7
100
AcDbSpline
 70
8
 71
3
 72
8
 73
4
 74
0
 40
0
 40
0
 40
0
 40
0
 40
1
 40
1
 40
1
 40
1
 10
0.130926
 20
2.511948
 30
0.0
 10
0.093367
 20
2.499111
 30
0.0
 10
0.063890
 20
2.488177
 30
0.0
 10
0.064366
 20
2.487226
 30
0.0
  0
SPLINE
  5
1ae
100
AcDbEntity
  8
horse_unicorn_preggo
 62
7
100
AcDbSpline
 70
8
 71
3
 72
8
 73
4
 74
0
 40
0
 40
0
 40
0
 40
0
 40
1
 40
1
 40
1
 40
1
 10
0.064366
 20
2.487226
 30
0.0
 10
0.065317
 20
2.486275
 30
0.0
 10
0.129975
 20
2.494357
 30
0.0
 10
0.207945
 20
2.504816
 30
0.0
  0
SPLINE
  5
1af
100
AcDbEntity
  8
horse_unicorn_preggo
 62
7
100
AcDbSpline
 70
8
 71
3
 72
8
 73
4
 74
0
 40
0
 40
0
 40
0
 40
0
 40
1
 40
1
 40
1
 40
1
 10
0.207945
 20
2.504816
 30
0.0
 10
0.285915
 20
2.515276
 30
0.0
 10
0.353426
 20
2.523834
 30
0.0
 10
0.357229
 20
2.523834
 30
0.0
  0
SPLINE
  5
1b0
100
AcDbEntity
  8
horse_unicorn_preggo
 62
7
100
AcDbSpline
 70
8
 71
3
 72
8
 73
4
 74
0
 40
0
 40
0
 40
0
 40
0
 40
1
 40
1
 40
1
 40
1
 10
0.357229
 20
2.523834
 30
0.0
 10
0.371017
 20
2.523358
 30
0.0
 10
0.275456
 20
2.485324
 30
0.0
 10
0.207945
 20
2.464405
 30
0.0
  0
SPLINE
  5
1b1
100
AcDbEntity
  8
horse_unicorn_preggo
 62
7
100
AcDbSpline
 70
8
 71
3
 72
8
 73
4
 74
0
 40
0
 40
0
 40
0
 40
0
 40
1
 40
1
 40
1
 40
1
 10
0.207945
 20
2.464405
 30
0.0
 10
0.171337
 20
2.453470
 30
0.0
 10
0.116187
 20
2.438257
 30
0.0
 10
0.085285
 20
2.431125
 30
0.0
  0
SPLINE
  5
1b2
100
AcDbEntity
  8
horse_unicorn_preggo
 62
7
100
AcDbSpline
 70
8
 71
3
 72
8
 73
4
 74
0
 40
0
 40
0
 40
0
 40
0
 40
1
 40
1
 40
1
 40
1
 10
0.085285
 20
2.431125
 30
0.0
 10
0.029660
 20
2.417813
 30
0.0
 10
0.028233
 20
2.417813
 30
0.0
 10
-0.026441
 20
2.423994
 30
0.0
  0
SPLINE
  5
1b3
100
AcDbEntity
  8
horse_unicorn_preggo
 62
7
100
AcDbSpline
 70
8
 71
3
 72
8
 73
4
 74
0
 40
0
 40
0
 40
0
 40
0
 40
1
 40
1
 40
1
 40
1
 10
-0.026441
 20
2.423994
 30
0.0
 10
-0.078262
 20
2.430174
 30
0.0
 10
-0.085394
 20
2.432076
 30
0.0
 10
-0.131510
 20
2.455847
 30
0.0
  0
SPLINE
  5
1b4
100
AcDbEntity
  8
horse_unicorn_preggo
 62
7
100
AcDbSpline
 70
8
 71
3
 72
8
 73
4
 74
0
 40
0
 40
0
 40
0
 40
0
 40
1
 40
1
 40
1
 40
1
 10
-0.131510
 20
2.455847
 30
0.0
 10
-0.159085
 20
2.469635
 30
0.0
 10
-0.179528
 20
2.479619
 30
0.0
 10
-0.177151
 20
2.477242
 30
0.0
  0
SPLINE
  5
1b5
100
AcDbEntity
  8
horse_unicorn_preggo
 62
7
100
AcDbSpline
 70
8
 71
3
 72
8
 73
4
 74
0
 40
0
 40
0
 40
0
 40
0
 40
1
 40
1
 40
1
 40
1
 10
-0.177151
 20
2.477242
 30
0.0
 10
-0.071606
 20
2.385960
 30
0.0
 10
-0.055442
 20
2.381205
 30
0.0
 10
0.090514
 20
2.404026
 30
0.0
  0
SPLINE
  5
1b6
100
AcDbEntity
  8
horse_unicorn_preggo
 62
7
100
AcDbSpline
 70
8
 71
3
 72
8
 73
4
 74
0
 40
0
 40
0
 40
0
 40
0
 40
1
 40
1
 40
1
 40
1
 10
0.090514
 20
2.404026
 30
0.0
 10
0.141861
 20
2.412108
 30
0.0
 10
0.203191
 20
2.421141
 30
0.0
 10
0.226011
 20
2.423994
 30
0.0
  0
SPLINE
  5
1b7
100
AcDbEntity
  8
horse_unicorn_preggo
 62
7
100
AcDbSpline
 70
8
 71
3
 72
8
 73
4
 74
0
 40
0
 40
0
 40
0
 40
0
 40
1
 40
1
 40
1
 40
1
 10
0.226011
 20
2.423994
 30
0.0
 10
0.249307
 20
2.426846
 30
0.0
 10
0.274980
 20
2.430174
 30
0.0
 10
0.283063
 20
2.431601
 30
0.0
  0
SPLINE
  5
1b8
100
AcDbEntity
  8
horse_unicorn_preggo
 62
7
100
AcDbSpline
 70
8
 71
3
 72
8
 73
4
 74
0
 40
0
 40
0
 40
0
 40
0
 40
1
 40
1
 40
1
 40
1
 10
0.283063
 20
2.431601
 30
0.0
 10
0.301604
 20
2.434453
 30
0.0
 10
0.158501
 20
2.379779
 30
0.0
 10
0.114761
 20
2.367418
 30
0.0
  0
SPLINE
  5
1b9
100
AcDbEntity
  8
horse_unicorn_preggo
 62
7
100
AcDbSpline
 70
8
 71
3
 72
8
 73
4
 74
0
 40
0
 40
0
 40
0
 40
0
 40
1
 40
1
 40
1
 40
1
 10
0.114761
 20
2.367418
 30
0.0
 10
0.081481
 20
2.357909
 30
0.0
 10
0.051054
 20
2.343647
 30
0.0
 10
0.063415
 20
2.343171
 30
0.0
  0
SPLINE
  5
1ba
100
AcDbEntity
  8
horse_unicorn_preggo
 62
7
100
AcDbSpline
 70
8
 71
3
 72
8
 73
4
 74
0
 40
0
 40
0
 40
0
 40
0
 40
1
 40
1
 40
1
 40
1
 10
0.063415
 20
2.343171
 30
0.0
 10
0.093842
 20
2.342696
 30
0.0
 10
0.282112
 20
2.384058
 30
0.0
 10
0.393362
 20
2.415912
 30
0.0
  0
LWPOLYLINE
  5
1bb
100
AcDbEntity
  8
horse_unicorn_preggo
 62
7
100
AcDbPolyline
 90
3
 70
0
 10
0.467053
 20
2.594197
 30
0.0
 10
0.512219
 20
2.592771
 30
0.0
 10
0.419510
 20
2.577557
 30
0.0
  0
SPLINE
  5
1bc
100
AcDbEntity
  8
horse_unicorn_preggo
 62
7
100
AcDbSpline
 70
8
 71
3
 72
8
 73
4
 74
0
 40
0
 40
0
 40
0
 40
0
 40
1
 40
1
 40
1
 40
1
 10
0.559761
 20
2.440634
 30
0.0
 10
0.645338
 20
2.440634
 30
0.0
 10
0.709521
 20
2.434929
 30
0.0
 10
0.692881
 20
2.428273
 30
0.0
  0
SPLINE
  5
1bd
100
AcDbEntity
  8
horse_unicorn_preggo
 62
7
100
AcDbSpline
 70
8
 71
3
 72
8
 73
4
 74
0
 40
0
 40
0
 40
0
 40
0
 40
1
 40
1
 40
1
 40
1
 10
0.692881
 20
2.428273
 30
0.0
 10
0.686700
 20
2.425896
 30
0.0
 10
0.695258
 20
2.424469
 30
0.0
 10
0.716652
 20
2.423518
 30
0.0
  0
SPLINE
  5
1be
100
AcDbEntity
  8
horse_unicorn_preggo
 62
7
100
AcDbSpline
 70
8
 71
3
 72
8
 73
4
 74
0
 40
0
 40
0
 40
0
 40
0
 40
1
 40
1
 40
1
 40
1
 10
0.716652
 20
2.423518
 30
0.0
 10
0.735194
 20
2.423043
 30
0.0
 10
0.764671
 20
2.421617
 30
0.0
 10
0.782261
 20
2.419715
 30
0.0
  0
LWPOLYLINE
  5
1bf
100
AcDbEntity
  8
horse_unicorn_preggo
 62
7
100
AcDbPolyline
 90
3
 70
0
 10
0.393362
 20
2.415912
 30
0.0
 10
0.478939
 20
2.440158
 30
0.0
 10
0.559761
 20
2.440634
 30
0.0
  0
SPLINE
  5
1c0
100
AcDbEntity
  8
horse_unicorn_preggo
 62
7
100
AcDbSpline
 70
8
 71
3
 72
8
 73
4
 74
0
 40
0
 40
0
 40
0
 40
0
 40
1
 40
1
 40
1
 40
1
 10
0.765621
 20
2.387386
 30
0.0
 10
0.633453
 20
2.308465
 30
0.0
 10
0.604452
 20
2.275660
 30
0.0
 10
0.596845
 20
2.198166
 30
0.0
  0
SPLINE
  5
1c1
100
AcDbEntity
  8
horse_unicorn_preggo
 62
7
100
AcDbSpline
 70
8
 71
3
 72
8
 73
4
 74
0
 40
0
 40
0
 40
0
 40
0
 40
1
 40
1
 40
1
 40
1
 10
0.596845
 20
2.198166
 30
0.0
 10
0.595418
 20
2.182477
 30
0.0
 10
0.592566
 20
2.166312
 30
0.0
 10
0.590664
 20
2.162509
 30
0.0
  0
SPLINE
  5
1c2
100
AcDbEntity
  8
horse_unicorn_preggo
 62
7
100
AcDbSpline
 70
8
 71
3
 72
8
 73
4
 74
0
 40
0
 40
0
 40
0
 40
0
 40
1
 40
1
 40
1
 40
1
 10
0.590664
 20
2.162509
 30
0.0
 10
0.588287
 20
2.158230
 30
0.0
 10
0.573549
 20
2.153000
 30
0.0
 10
0.555958
 20
2.149672
 30
0.0
  0
SPLINE
  5
1c3
100
AcDbEntity
  8
horse_unicorn_preggo
 62
7
100
AcDbSpline
 70
8
 71
3
 72
8
 73
4
 74
0
 40
0
 40
0
 40
0
 40
0
 40
1
 40
1
 40
1
 40
1
 10
0.555958
 20
2.149672
 30
0.0
 10
0.538843
 20
2.146344
 30
0.0
 10
0.483693
 20
2.131606
 30
0.0
 10
0.432822
 20
2.117343
 30
0.0
  0
SPLINE
  5
1c4
100
AcDbEntity
  8
horse_unicorn_preggo
 62
7
100
AcDbSpline
 70
8
 71
3
 72
8
 73
4
 74
0
 40
0
 40
0
 40
0
 40
0
 40
1
 40
1
 40
1
 40
1
 10
0.432822
 20
2.117343
 30
0.0
 10
0.285915
 20
2.075030
 30
0.0
 10
0.213175
 20
2.033192
 30
0.0
 10
0.180370
 20
1.973289
 30
0.0
  0
SPLINE
  5
1c5
100
AcDbEntity
  8
horse_unicorn_preggo
 62
7
100
AcDbSpline
 70
8
 71
3
 72
8
 73
4
 74
0
 40
0
 40
0
 40
0
 40
0
 40
1
 40
1
 40
1
 40
1
 10
0.180370
 20
1.973289
 30
0.0
 10
0.173239
 20
1.960452
 30
0.0
 10
0.163255
 20
1.929074
 30
0.0
 10
0.158501
 20
1.903401
 30
0.0
  0
SPLINE
  5
1c6
100
AcDbEntity
  8
horse_unicorn_preggo
 62
7
100
AcDbSpline
 70
8
 71
3
 72
8
 73
4
 74
0
 40
0
 40
0
 40
0
 40
0
 40
1
 40
1
 40
1
 40
1
 10
0.158501
 20
1.903401
 30
0.0
 10
0.153271
 20
1.878203
 30
0.0
 10
0.146139
 20
1.853956
 30
0.0
 10
0.142811
 20
1.850153
 30
0.0
  0
SPLINE
  5
1c7
100
AcDbEntity
  8
horse_unicorn_preggo
 62
7
100
AcDbSpline
 70
8
 71
3
 72
8
 73
4
 74
0
 40
0
 40
0
 40
0
 40
0
 40
1
 40
1
 40
1
 40
1
 10
0.142811
 20
1.850153
 30
0.0
 10
0.137582
 20
1.843972
 30
0.0
 10
0.124745
 20
1.843021
 30
0.0
 10
0.053431
 20
1.844923
 30
0.0
  0
LWPOLYLINE
  5
1c8
100
AcDbEntity
  8
horse_unicorn_preggo
 62
7
100
AcDbPolyline
 90
3
 70
0
 10
0.782261
 20
2.419715
 30
0.0
 10
0.814590
 20
2.416862
 30
0.0
 10
0.765621
 20
2.387386
 30
0.0
  0
SPLINE
  5
1c9
100
AcDbEntity
  8
horse_unicorn_preggo
 62
7
100
AcDbSpline
 70
8
 71
3
 72
8
 73
4
 74
0
 40
0
 40
0
 40
0
 40
0
 40
1
 40
1
 40
1
 40
1
 10
-0.104886
 20
1.883908
 30
0.0
 10
-0.189037
 20
1.924795
 30
0.0
 10
-0.205202
 20
1.931926
 30
0.0
 10
-0.200923
 20
1.924795
 30
0.0
  0
SPLINE
  5
1ca
100
AcDbEntity
  8
horse_unicorn_preggo
 62
7
100
AcDbSpline
 70
8
 71
3
 72
8
 73
4
 74
0
 40
0
 40
0
 40
0
 40
0
 40
1
 40
1
 40
1
 40
1
 10
-0.200923
 20
1.924795
 30
0.0
 10
-0.196168
 20
1.916713
 30
0.0
 10
-0.063049
 20
1.830185
 30
0.0
 10
-0.040704
 20
1.820676
 30
0.0
  0
SPLINE
  5
1cb
100
AcDbEntity
  8
horse_unicorn_preggo
 62
7
100
AcDbSpline
 70
8
 71
3
 72
8
 73
4
 74
0
 40
0
 40
0
 40
0
 40
0
 40
1
 40
1
 40
1
 40
1
 10
-0.040704
 20
1.820676
 30
0.0
 10
0.000659
 20
1.803085
 30
0.0
 10
0.089564
 20
1.786921
 30
0.0
 10
0.148992
 20
1.786446
 30
0.0
  0
LWPOLYLINE
  5
1cc
100
AcDbEntity
  8
horse_unicorn_preggo
 62
7
100
AcDbPolyline
 90
3
 70
0
 10
0.053431
 20
1.844923
 30
0.0
 10
-0.029769
 20
1.847300
 30
0.0
 10
-0.104886
 20
1.883908
 30
0.0
  0
SPLINE
  5
1cd
100
AcDbEntity
  8
horse_unicorn_preggo
 62
7
100
AcDbSpline
 70
8
 71
3
 72
8
 73
4
 74
0
 40
0
 40
0
 40
0
 40
0
 40
1
 40
1
 40
1
 40
1
 10
0.131877
 20
1.770756
 30
0.0
 10
0.100498
 20
1.762199
 30
0.0
 10
0.066268
 20
1.751264
 30
0.0
 10
0.055808
 20
1.746510
 30
0.0
  0
SPLINE
  5
1ce
100
AcDbEntity
  8
horse_unicorn_preggo
 62
7
100
AcDbSpline
 70
8
 71
3
 72
8
 73
4
 74
0
 40
0
 40
0
 40
0
 40
0
 40
1
 40
1
 40
1
 40
1
 10
0.055808
 20
1.746510
 30
0.0
 10
0.045349
 20
1.741280
 30
0.0
 10
0.004937
 20
1.705623
 30
0.0
 10
-0.034523
 20
1.666638
 30
0.0
  0
SPLINE
  5
1cf
100
AcDbEntity
  8
horse_unicorn_preggo
 62
7
100
AcDbSpline
 70
8
 71
3
 72
8
 73
4
 74
0
 40
0
 40
0
 40
0
 40
0
 40
1
 40
1
 40
1
 40
1
 10
-0.034523
 20
1.666638
 30
0.0
 10
-0.073508
 20
1.627653
 30
0.0
 10
-0.102509
 20
1.597701
 30
0.0
 10
-0.098706
 20
1.599603
 30
0.0
  0
SPLINE
  5
1d0
100
AcDbEntity
  8
horse_unicorn_preggo
 62
7
100
AcDbSpline
 70
8
 71
3
 72
8
 73
4
 74
0
 40
0
 40
0
 40
0
 40
0
 40
1
 40
1
 40
1
 40
1
 10
-0.098706
 20
1.599603
 30
0.0
 10
-0.094902
 20
1.601980
 30
0.0
 10
-0.064000
 20
1.621472
 30
0.0
 10
-0.030244
 20
1.643342
 30
0.0
  0
SPLINE
  5
1d1
100
AcDbEntity
  8
horse_unicorn_preggo
 62
7
100
AcDbSpline
 70
8
 71
3
 72
8
 73
4
 74
0
 40
0
 40
0
 40
0
 40
0
 40
1
 40
1
 40
1
 40
1
 10
-0.030244
 20
1.643342
 30
0.0
 10
0.071497
 20
1.709902
 30
0.0
 10
0.098121
 20
1.722263
 30
0.0
 10
0.174665
 20
1.736526
 30
0.0
  0
SPLINE
  5
1d2
100
AcDbEntity
  8
horse_unicorn_preggo
 62
7
100
AcDbSpline
 70
8
 71
3
 72
8
 73
4
 74
0
 40
0
 40
0
 40
0
 40
0
 40
1
 40
1
 40
1
 40
1
 10
0.174665
 20
1.736526
 30
0.0
 10
0.211273
 20
1.743657
 30
0.0
 10
0.245028
 20
1.749838
 30
0.0
 10
0.249783
 20
1.750788
 30
0.0
  0
SPLINE
  5
1d3
100
AcDbEntity
  8
horse_unicorn_preggo
 62
7
100
AcDbSpline
 70
8
 71
3
 72
8
 73
4
 74
0
 40
0
 40
0
 40
0
 40
0
 40
1
 40
1
 40
1
 40
1
 10
0.249783
 20
1.750788
 30
0.0
 10
0.261193
 20
1.753641
 30
0.0
 10
0.260242
 20
1.748411
 30
0.0
 10
0.238372
 20
1.676622
 30
0.0
  0
SPLINE
  5
1d4
100
AcDbEntity
  8
horse_unicorn_preggo
 62
7
100
AcDbSpline
 70
8
 71
3
 72
8
 73
4
 74
0
 40
0
 40
0
 40
0
 40
0
 40
1
 40
1
 40
1
 40
1
 10
0.238372
 20
1.676622
 30
0.0
 10
0.189403
 20
1.516403
 30
0.0
 10
0.138057
 20
1.457450
 30
0.0
 10
0.005888
 20
1.409907
 30
0.0
  0
SPLINE
  5
1d5
100
AcDbEntity
  8
horse_unicorn_preggo
 62
7
100
AcDbSpline
 70
8
 71
3
 72
8
 73
4
 74
0
 40
0
 40
0
 40
0
 40
0
 40
1
 40
1
 40
1
 40
1
 10
0.005888
 20
1.409907
 30
0.0
 10
-0.075885
 20
1.380430
 30
0.0
 10
-0.137215
 20
1.343347
 30
0.0
 10
-0.172872
 20
1.302460
 30
0.0
  0
SPLINE
  5
1d6
100
AcDbEntity
  8
horse_unicorn_preggo
 62
7
100
AcDbSpline
 70
8
 71
3
 72
8
 73
4
 74
0
 40
0
 40
0
 40
0
 40
0
 40
1
 40
1
 40
1
 40
1
 10
-0.172872
 20
1.302460
 30
0.0
 10
-0.183807
 20
1.290099
 30
0.0
 10
-0.227071
 20
1.211654
 30
0.0
 10
-0.242285
 20
1.175997
 30
0.0
  0
LWPOLYLINE
  5
1d7
100
AcDbEntity
  8
horse_unicorn_preggo
 62
7
100
AcDbPolyline
 90
3
 70
0
 10
0.148992
 20
1.786446
 30
0.0
 10
0.188928
 20
1.786446
 30
0.0
 10
0.131877
 20
1.770756
 30
0.0
  0
SPLINE
  5
1d8
100
AcDbEntity
  8
horse_unicorn_preggo
 62
7
100
AcDbSpline
 70
8
 71
3
 72
8
 73
4
 74
0
 40
0
 40
0
 40
0
 40
0
 40
1
 40
1
 40
1
 40
1
 10
-0.230399
 20
1.180275
 30
0.0
 10
-0.190463
 20
1.227343
 30
0.0
 10
-0.183807
 20
1.232572
 30
0.0
 10
-0.206152
 20
1.199768
 30
0.0
  0
SPLINE
  5
1d9
100
AcDbEntity
  8
horse_unicorn_preggo
 62
7
100
AcDbSpline
 70
8
 71
3
 72
8
 73
4
 74
0
 40
0
 40
0
 40
0
 40
0
 40
1
 40
1
 40
1
 40
1
 10
-0.206152
 20
1.199768
 30
0.0
 10
-0.227071
 20
1.169341
 30
0.0
 10
-0.330239
 20
1.024335
 30
0.0
 10
-0.343075
 20
1.007220
 30
0.0
  0
SPLINE
  5
1da
100
AcDbEntity
  8
horse_unicorn_preggo
 62
7
100
AcDbSpline
 70
8
 71
3
 72
8
 73
4
 74
0
 40
0
 40
0
 40
0
 40
0
 40
1
 40
1
 40
1
 40
1
 10
-0.343075
 20
1.007220
 30
0.0
 10
-0.347354
 20
1.001515
 30
0.0
 10
-0.346879
 20
1.001039
 30
0.0
 10
-0.341174
 20
1.005318
 30
0.0
  0
SPLINE
  5
1db
100
AcDbEntity
  8
horse_unicorn_preggo
 62
7
100
AcDbSpline
 70
8
 71
3
 72
8
 73
4
 74
0
 40
0
 40
0
 40
0
 40
0
 40
1
 40
1
 40
1
 40
1
 10
-0.341174
 20
1.005318
 30
0.0
 10
-0.326911
 20
1.015778
 30
0.0
 10
-0.247515
 20
1.072353
 30
0.0
 10
-0.209480
 20
1.098977
 30
0.0
  0
LWPOLYLINE
  5
1dc
100
AcDbEntity
  8
horse_unicorn_preggo
 62
7
100
AcDbPolyline
 90
3
 70
0
 10
-0.242285
 20
1.175997
 30
0.0
 10
-0.250843
 20
1.156980
 30
0.0
 10
-0.230399
 20
1.180275
 30
0.0
  0
SPLINE
  5
1dd
100
AcDbEntity
  8
horse_unicorn_preggo
 62
7
100
AcDbSpline
 70
8
 71
3
 72
8
 73
4
 74
0
 40
0
 40
0
 40
0
 40
0
 40
1
 40
1
 40
1
 40
1
 10
-0.182381
 20
1.082813
 30
0.0
 10
-0.197119
 20
1.027188
 30
0.0
 10
-0.225169
 20
0.960153
 30
0.0
 10
-0.258449
 20
0.900724
 30
0.0
  0
SPLINE
  5
1de
100
AcDbEntity
  8
horse_unicorn_preggo
 62
7
100
AcDbSpline
 70
8
 71
3
 72
8
 73
4
 74
0
 40
0
 40
0
 40
0
 40
0
 40
1
 40
1
 40
1
 40
1
 10
-0.258449
 20
0.900724
 30
0.0
 10
-0.272712
 20
0.875051
 30
0.0
 10
-0.283647
 20
0.852706
 30
0.0
 10
-0.282221
 20
0.851755
 30
0.0
  0
SPLINE
  5
1df
100
AcDbEntity
  8
horse_unicorn_preggo
 62
7
100
AcDbSpline
 70
8
 71
3
 72
8
 73
4
 74
0
 40
0
 40
0
 40
0
 40
0
 40
1
 40
1
 40
1
 40
1
 10
-0.282221
 20
0.851755
 30
0.0
 10
-0.280794
 20
0.850329
 30
0.0
 10
-0.248465
 20
0.856034
 30
0.0
 10
-0.210431
 20
0.864592
 30
0.0
  0
SPLINE
  5
1e0
100
AcDbEntity
  8
horse_unicorn_preggo
 62
7
100
AcDbSpline
 70
8
 71
3
 72
8
 73
4
 74
0
 40
0
 40
0
 40
0
 40
0
 40
1
 40
1
 40
1
 40
1
 10
-0.210431
 20
0.864592
 30
0.0
 10
-0.142445
 20
0.879330
 30
0.0
 10
-0.140543
 20
0.879805
 30
0.0
 10
-0.131035
 20
0.871248
 30
0.0
  0
SPLINE
  5
1e1
100
AcDbEntity
  8
horse_unicorn_preggo
 62
7
100
AcDbSpline
 70
8
 71
3
 72
8
 73
4
 74
0
 40
0
 40
0
 40
0
 40
0
 40
1
 40
1
 40
1
 40
1
 10
-0.131035
 20
0.871248
 30
0.0
 10
-0.114395
 20
0.855558
 30
0.0
 10
-0.122002
 20
0.833213
 30
0.0
 10
-0.169544
 20
0.759998
 30
0.0
  0
LWPOLYLINE
  5
1e2
100
AcDbEntity
  8
horse_unicorn_preggo
 62
7
100
AcDbPolyline
 90
3
 70
0
 10
-0.209480
 20
1.098977
 30
0.0
 10
-0.170495
 20
1.126077
 30
0.0
 10
-0.182381
 20
1.082813
 30
0.0
  0
SPLINE
  5
1e3
100
AcDbEntity
  8
horse_unicorn_preggo
 62
7
100
AcDbSpline
 70
8
 71
3
 72
8
 73
4
 74
0
 40
0
 40
0
 40
0
 40
0
 40
1
 40
1
 40
1
 40
1
 10
-0.170020
 20
0.721963
 30
0.0
 10
-0.100607
 20
0.768555
 30
0.0
 10
-0.025490
 20
0.837968
 30
0.0
 10
0.021577
 20
0.898822
 30
0.0
  0
SPLINE
  5
1e4
100
AcDbEntity
  8
horse_unicorn_preggo
 62
7
100
AcDbSpline
 70
8
 71
3
 72
8
 73
4
 74
0
 40
0
 40
0
 40
0
 40
0
 40
1
 40
1
 40
1
 40
1
 10
0.021577
 20
0.898822
 30
0.0
 10
0.082908
 20
0.977743
 30
0.0
 10
0.153271
 20
1.101830
 30
0.0
 10
0.190830
 20
1.197391
 30
0.0
  0
SPLINE
  5
1e5
100
AcDbEntity
  8
horse_unicorn_preggo
 62
7
100
AcDbSpline
 70
8
 71
3
 72
8
 73
4
 74
0
 40
0
 40
0
 40
0
 40
0
 40
1
 40
1
 40
1
 40
1
 10
0.190830
 20
1.197391
 30
0.0
 10
0.207470
 20
1.239704
 30
0.0
 10
0.234094
 20
1.272984
 30
0.0
 10
0.266423
 20
1.292952
 30
0.0
  0
SPLINE
  5
1e6
100
AcDbEntity
  8
horse_unicorn_preggo
 62
7
100
AcDbSpline
 70
8
 71
3
 72
8
 73
4
 74
0
 40
0
 40
0
 40
0
 40
0
 40
1
 40
1
 40
1
 40
1
 10
0.266423
 20
1.292952
 30
0.0
 10
0.274505
 20
1.298657
 30
0.0
 10
0.280685
 20
1.304837
 30
0.0
 10
0.278784
 20
1.307215
 30
0.0
  0
SPLINE
  5
1e7
100
AcDbEntity
  8
horse_unicorn_preggo
 62
7
100
AcDbSpline
 70
8
 71
3
 72
8
 73
4
 74
0
 40
0
 40
0
 40
0
 40
0
 40
1
 40
1
 40
1
 40
1
 10
0.278784
 20
1.307215
 30
0.0
 10
0.277357
 20
1.309592
 30
0.0
 10
0.284964
 20
1.311493
 30
0.0
 10
0.295424
 20
1.311493
 30
0.0
  0
SPLINE
  5
1e8
100
AcDbEntity
  8
horse_unicorn_preggo
 62
7
100
AcDbSpline
 70
8
 71
3
 72
8
 73
4
 74
0
 40
0
 40
0
 40
0
 40
0
 40
1
 40
1
 40
1
 40
1
 10
0.295424
 20
1.311493
 30
0.0
 10
0.306358
 20
1.311493
 30
0.0
 10
0.314916
 20
1.309592
 30
0.0
 10
0.314916
 20
1.306739
 30
0.0
  0
SPLINE
  5
1e9
100
AcDbEntity
  8
horse_unicorn_preggo
 62
7
100
AcDbSpline
 70
8
 71
3
 72
8
 73
4
 74
0
 40
0
 40
0
 40
0
 40
0
 40
1
 40
1
 40
1
 40
1
 10
0.314916
 20
1.306739
 30
0.0
 10
0.314916
 20
1.304362
 30
0.0
 10
0.313014
 20
1.301985
 30
0.0
 10
0.310162
 20
1.301985
 30
0.0
  0
SPLINE
  5
1ea
100
AcDbEntity
  8
horse_unicorn_preggo
 62
7
100
AcDbSpline
 70
8
 71
3
 72
8
 73
4
 74
0
 40
0
 40
0
 40
0
 40
0
 40
1
 40
1
 40
1
 40
1
 10
0.310162
 20
1.301985
 30
0.0
 10
0.303981
 20
1.301985
 30
0.0
 10
0.303981
 20
1.191210
 30
0.0
 10
0.310637
 20
1.131782
 30
0.0
  0
SPLINE
  5
1eb
100
AcDbEntity
  8
horse_unicorn_preggo
 62
7
100
AcDbSpline
 70
8
 71
3
 72
8
 73
4
 74
0
 40
0
 40
0
 40
0
 40
0
 40
1
 40
1
 40
1
 40
1
 10
0.310637
 20
1.131782
 30
0.0
 10
0.313965
 20
1.098502
 30
0.0
 10
0.318720
 20
1.079960
 30
0.0
 10
0.326802
 20
1.066173
 30
0.0
  0
SPLINE
  5
1ec
100
AcDbEntity
  8
horse_unicorn_preggo
 62
7
100
AcDbSpline
 70
8
 71
3
 72
8
 73
4
 74
0
 40
0
 40
0
 40
0
 40
0
 40
1
 40
1
 40
1
 40
1
 10
0.326802
 20
1.066173
 30
0.0
 10
0.337737
 20
1.047631
 30
0.0
 10
0.433773
 20
0.948742
 30
0.0
 10
0.437576
 20
0.952546
 30
0.0
  0
SPLINE
  5
1ed
100
AcDbEntity
  8
horse_unicorn_preggo
 62
7
100
AcDbSpline
 70
8
 71
3
 72
8
 73
4
 74
0
 40
0
 40
0
 40
0
 40
0
 40
1
 40
1
 40
1
 40
1
 10
0.437576
 20
0.952546
 30
0.0
 10
0.438527
 20
0.953497
 30
0.0
 10
0.436626
 20
0.978219
 30
0.0
 10
0.433298
 20
1.008171
 30
0.0
  0
SPLINE
  5
1ee
100
AcDbEntity
  8
horse_unicorn_preggo
 62
7
100
AcDbSpline
 70
8
 71
3
 72
8
 73
4
 74
0
 40
0
 40
0
 40
0
 40
0
 40
1
 40
1
 40
1
 40
1
 10
0.433298
 20
1.008171
 30
0.0
 10
0.425215
 20
1.080911
 30
0.0
 10
0.425215
 20
1.192161
 30
0.0
 10
0.433298
 20
1.231622
 30
0.0
  0
SPLINE
  5
1ef
100
AcDbEntity
  8
horse_unicorn_preggo
 62
7
100
AcDbSpline
 70
8
 71
3
 72
8
 73
4
 74
0
 40
0
 40
0
 40
0
 40
0
 40
1
 40
1
 40
1
 40
1
 10
0.433298
 20
1.231622
 30
0.0
 10
0.440904
 20
1.270607
 30
0.0
 10
0.459922
 20
1.302460
 30
0.0
 10
0.481791
 20
1.312920
 30
0.0
  0
SPLINE
  5
1f0
100
AcDbEntity
  8
horse_unicorn_preggo
 62
7
100
AcDbSpline
 70
8
 71
3
 72
8
 73
4
 74
0
 40
0
 40
0
 40
0
 40
0
 40
1
 40
1
 40
1
 40
1
 10
0.481791
 20
1.312920
 30
0.0
 10
0.490824
 20
1.316723
 30
0.0
 10
0.513645
 20
1.323855
 30
0.0
 10
0.532662
 20
1.328133
 30
0.0
  0
SPLINE
  5
1f1
100
AcDbEntity
  8
horse_unicorn_preggo
 62
7
100
AcDbSpline
 70
8
 71
3
 72
8
 73
4
 74
0
 40
0
 40
0
 40
0
 40
0
 40
1
 40
1
 40
1
 40
1
 10
0.532662
 20
1.328133
 30
0.0
 10
0.553581
 20
1.332888
 30
0.0
 10
0.572598
 20
1.340495
 30
0.0
 10
0.581156
 20
1.348101
 30
0.0
  0
SPLINE
  5
1f2
100
AcDbEntity
  8
horse_unicorn_preggo
 62
7
100
AcDbSpline
 70
8
 71
3
 72
8
 73
4
 74
0
 40
0
 40
0
 40
0
 40
0
 40
1
 40
1
 40
1
 40
1
 10
0.581156
 20
1.348101
 30
0.0
 10
0.589713
 20
1.355233
 30
0.0
 10
0.607780
 20
1.385660
 30
0.0
 10
0.628223
 20
1.427022
 30
0.0
  0
SPLINE
  5
1f3
100
AcDbEntity
  8
horse_unicorn_preggo
 62
7
100
AcDbSpline
 70
8
 71
3
 72
8
 73
4
 74
0
 40
0
 40
0
 40
0
 40
0
 40
1
 40
1
 40
1
 40
1
 10
0.628223
 20
1.427022
 30
0.0
 10
0.683372
 20
1.540174
 30
0.0
 10
0.695734
 20
1.552060
 30
0.0
 10
0.797475
 20
1.589619
 30
0.0
  0
SPLINE
  5
1f4
100
AcDbEntity
  8
horse_unicorn_preggo
 62
7
100
AcDbSpline
 70
8
 71
3
 72
8
 73
4
 74
0
 40
0
 40
0
 40
0
 40
0
 40
1
 40
1
 40
1
 40
1
 10
0.797475
 20
1.589619
 30
0.0
 10
0.852625
 20
1.610537
 30
0.0
 10
0.928693
 20
1.657129
 30
0.0
 10
1.023303
 20
1.727968
 30
0.0
  0
SPLINE
  5
1f5
100
AcDbEntity
  8
horse_unicorn_preggo
 62
7
100
AcDbSpline
 70
8
 71
3
 72
8
 73
4
 74
0
 40
0
 40
0
 40
0
 40
0
 40
1
 40
1
 40
1
 40
1
 10
1.023303
 20
1.727968
 30
0.0
 10
1.152144
 20
1.824480
 30
0.0
 10
1.222507
 20
1.894843
 30
0.0
 10
1.362758
 20
2.067423
 30
0.0
  0
SPLINE
  5
1f6
100
AcDbEntity
  8
horse_unicorn_preggo
 62
7
100
AcDbSpline
 70
8
 71
3
 72
8
 73
4
 74
0
 40
0
 40
0
 40
0
 40
0
 40
1
 40
1
 40
1
 40
1
 10
1.362758
 20
2.067423
 30
0.0
 10
1.415055
 20
2.131606
 30
0.0
 10
1.460696
 20
2.187231
 30
0.0
 10
1.464500
 20
2.191034
 30
0.0
  0
SPLINE
  5
1f7
100
AcDbEntity
  8
horse_unicorn_preggo
 62
7
100
AcDbSpline
 70
8
 71
3
 72
8
 73
4
 74
0
 40
0
 40
0
 40
0
 40
0
 40
1
 40
1
 40
1
 40
1
 10
1.464500
 20
2.191034
 30
0.0
 10
1.468303
 20
2.194838
 30
0.0
 10
1.462598
 20
2.182001
 30
0.0
 10
1.452139
 20
2.162509
 30
0.0
  0
SPLINE
  5
1f8
100
AcDbEntity
  8
horse_unicorn_preggo
 62
7
100
AcDbSpline
 70
8
 71
3
 72
8
 73
4
 74
0
 40
0
 40
0
 40
0
 40
0
 40
1
 40
1
 40
1
 40
1
 10
1.452139
 20
2.162509
 30
0.0
 10
1.429794
 20
2.121146
 30
0.0
 10
1.379874
 20
2.008470
 30
0.0
 10
1.379874
 20
1.998962
 30
0.0
  0
SPLINE
  5
1f9
100
AcDbEntity
  8
horse_unicorn_preggo
 62
7
100
AcDbSpline
 70
8
 71
3
 72
8
 73
4
 74
0
 40
0
 40
0
 40
0
 40
0
 40
1
 40
1
 40
1
 40
1
 10
1.379874
 20
1.998962
 30
0.0
 10
1.379874
 20
1.983748
 30
0.0
 10
1.328528
 20
1.925270
 30
0.0
 10
1.219179
 20
1.815922
 30
0.0
  0
SPLINE
  5
1fa
100
AcDbEntity
  8
horse_unicorn_preggo
 62
7
100
AcDbSpline
 70
8
 71
3
 72
8
 73
4
 74
0
 40
0
 40
0
 40
0
 40
0
 40
1
 40
1
 40
1
 40
1
 10
1.219179
 20
1.815922
 30
0.0
 10
1.099847
 20
1.696590
 30
0.0
 10
1.099372
 20
1.695163
 30
0.0
 10
1.215851
 20
1.792151
 30
0.0
  0
SPLINE
  5
1fb
100
AcDbEntity
  8
horse_unicorn_preggo
 62
7
100
AcDbSpline
 70
8
 71
3
 72
8
 73
4
 74
0
 40
0
 40
0
 40
0
 40
0
 40
1
 40
1
 40
1
 40
1
 10
1.215851
 20
1.792151
 30
0.0
 10
1.315691
 20
1.874875
 30
0.0
 10
1.375595
 20
1.930500
 30
0.0
 10
1.404596
 20
1.966157
 30
0.0
  0
SPLINE
  5
1fc
100
AcDbEntity
  8
horse_unicorn_preggo
 62
7
100
AcDbSpline
 70
8
 71
3
 72
8
 73
4
 74
0
 40
0
 40
0
 40
0
 40
0
 40
1
 40
1
 40
1
 40
1
 10
1.404596
 20
1.966157
 30
0.0
 10
1.450712
 20
2.022733
 30
0.0
 10
1.493976
 20
2.097851
 30
0.0
 10
1.483042
 20
2.102129
 30
0.0
  0
SPLINE
  5
1fd
100
AcDbEntity
  8
horse_unicorn_preggo
 62
7
100
AcDbSpline
 70
8
 71
3
 72
8
 73
4
 74
0
 40
0
 40
0
 40
0
 40
0
 40
1
 40
1
 40
1
 40
1
 10
1.483042
 20
2.102129
 30
0.0
 10
1.479714
 20
2.103556
 30
0.0
 10
1.481140
 20
2.104982
 30
0.0
 10
1.485894
 20
2.104982
 30
0.0
  0
SPLINE
  5
1fe
100
AcDbEntity
  8
horse_unicorn_preggo
 62
7
100
AcDbSpline
 70
8
 71
3
 72
8
 73
4
 74
0
 40
0
 40
0
 40
0
 40
0
 40
1
 40
1
 40
1
 40
1
 10
1.485894
 20
2.104982
 30
0.0
 10
1.492075
 20
2.105457
 30
0.0
 10
1.502059
 20
2.121622
 30
0.0
 10
1.520600
 20
2.161558
 30
0.0
  0
SPLINE
  5
1ff
100
AcDbEntity
  8
horse_unicorn_preggo
 62
7
100
AcDbSpline
 70
8
 71
3
 72
8
 73
4
 74
0
 40
0
 40
0
 40
0
 40
0
 40
1
 40
1
 40
1
 40
1
 10
1.520600
 20
2.161558
 30
0.0
 10
1.548175
 20
2.219560
 30
0.0
 10
1.609981
 20
2.362188
 30
0.0
 10
1.624719
 20
2.401649
 30
0.0
  0
SPLINE
  5
200
100
AcDbEntity
  8
horse_unicorn_preggo
 62
7
100
AcDbSpline
 70
8
 71
3
 72
8
 73
4
 74
0
 40
0
 40
0
 40
0
 40
0
 40
1
 40
1
 40
1
 40
1
 10
1.624719
 20
2.401649
 30
0.0
 10
1.629473
 20
2.414010
 30
0.0
 10
1.634227
 20
2.423518
 30
0.0
 10
1.635178
 20
2.422568
 30
0.0
  0
SPLINE
  5
201
100
AcDbEntity
  8
horse_unicorn_preggo
 62
7
100
AcDbSpline
 70
8
 71
3
 72
8
 73
4
 74
0
 40
0
 40
0
 40
0
 40
0
 40
1
 40
1
 40
1
 40
1
 10
1.635178
 20
2.422568
 30
0.0
 10
1.636129
 20
2.421617
 30
0.0
 10
1.632326
 20
2.392140
 30
0.0
 10
1.627096
 20
2.356959
 30
0.0
  0
SPLINE
  5
202
100
AcDbEntity
  8
horse_unicorn_preggo
 62
7
100
AcDbSpline
 70
8
 71
3
 72
8
 73
4
 74
0
 40
0
 40
0
 40
0
 40
0
 40
1
 40
1
 40
1
 40
1
 10
1.627096
 20
2.356959
 30
0.0
 10
1.621866
 20
2.321777
 30
0.0
 10
1.617588
 20
2.286120
 30
0.0
 10
1.617588
 20
2.277562
 30
0.0
  0
SPLINE
  5
203
100
AcDbEntity
  8
horse_unicorn_preggo
 62
7
100
AcDbSpline
 70
8
 71
3
 72
8
 73
4
 74
0
 40
0
 40
0
 40
0
 40
0
 40
1
 40
1
 40
1
 40
1
 10
1.617588
 20
2.277562
 30
0.0
 10
1.617588
 20
2.247610
 30
0.0
 10
1.600472
 20
2.221462
 30
0.0
 10
1.522502
 20
2.133508
 30
0.0
  0
SPLINE
  5
204
100
AcDbEntity
  8
horse_unicorn_preggo
 62
7
100
AcDbSpline
 70
8
 71
3
 72
8
 73
4
 74
0
 40
0
 40
0
 40
0
 40
0
 40
1
 40
1
 40
1
 40
1
 10
1.522502
 20
2.133508
 30
0.0
 10
1.497304
 20
2.104507
 30
0.0
 10
1.496829
 20
2.104031
 30
0.0
 10
1.510616
 20
2.107359
 30
0.0
  0
SPLINE
  5
205
100
AcDbEntity
  8
horse_unicorn_preggo
 62
7
100
AcDbSpline
 70
8
 71
3
 72
8
 73
4
 74
0
 40
0
 40
0
 40
0
 40
0
 40
1
 40
1
 40
1
 40
1
 10
1.510616
 20
2.107359
 30
0.0
 10
1.518699
 20
2.108785
 30
0.0
 10
1.540568
 20
2.118294
 30
0.0
 10
1.560061
 20
2.127802
 30
0.0
  0
SPLINE
  5
206
100
AcDbEntity
  8
horse_unicorn_preggo
 62
7
100
AcDbSpline
 70
8
 71
3
 72
8
 73
4
 74
0
 40
0
 40
0
 40
0
 40
0
 40
1
 40
1
 40
1
 40
1
 10
1.560061
 20
2.127802
 30
0.0
 10
1.587636
 20
2.141114
 30
0.0
 10
1.604751
 20
2.154426
 30
0.0
 10
1.636129
 20
2.186280
 30
0.0
  0
SPLINE
  5
207
100
AcDbEntity
  8
horse_unicorn_preggo
 62
7
100
AcDbSpline
 70
8
 71
3
 72
8
 73
4
 74
0
 40
0
 40
0
 40
0
 40
0
 40
1
 40
1
 40
1
 40
1
 10
1.636129
 20
2.186280
 30
0.0
 10
1.704591
 20
2.255692
 30
0.0
 10
1.728838
 20
2.307039
 30
0.0
 10
1.729313
 20
2.384058
 30
0.0
  0
LWPOLYLINE
  5
208
100
AcDbEntity
  8
horse_unicorn_preggo
 62
7
100
AcDbPolyline
 90
3
 70
0
 10
-0.169544
 20
0.759998
 30
0.0
 10
-0.212808
 20
0.693438
 30
0.0
 10
-0.170020
 20
0.721963
 30
0.0
  0
SPLINE
  5
209
100
AcDbEntity
  8
horse_unicorn_preggo
 62
7
100
AcDbSpline
 70
8
 71
3
 72
8
 73
4
 74
0
 40
0
 40
0
 40
0
 40
0
 40
1
 40
1
 40
1
 40
1
 10
1.773528
 20
2.440634
 30
0.0
 10
1.850072
 20
2.463930
 30
0.0
 10
1.874794
 20
2.486275
 30
0.0
 10
1.900467
 20
2.556163
 30
0.0
  0
LWPOLYLINE
  5
20a
100
AcDbEntity
  8
horse_unicorn_preggo
 62
7
100
AcDbPolyline
 90
3
 70
0
 10
1.729313
 20
2.384058
 30
0.0
 10
1.729313
 20
2.427322
 30
0.0
 10
1.773528
 20
2.440634
 30
0.0
  0
SPLINE
  5
20b
100
AcDbEntity
  8
horse_unicorn_preggo
 62
7
100
AcDbSpline
 70
8
 71
3
 72
8
 73
4
 74
0
 40
0
 40
0
 40
0
 40
0
 40
1
 40
1
 40
1
 40
1
 10
1.929943
 20
2.568048
 30
0.0
 10
1.963699
 20
2.509095
 30
0.0
 10
2.002208
 20
2.429699
 30
0.0
 10
2.009815
 20
2.402600
 30
0.0
  0
SPLINE
  5
20c
100
AcDbEntity
  8
horse_unicorn_preggo
 62
7
100
AcDbSpline
 70
8
 71
3
 72
8
 73
4
 74
0
 40
0
 40
0
 40
0
 40
0
 40
1
 40
1
 40
1
 40
1
 10
2.009815
 20
2.402600
 30
0.0
 10
2.020275
 20
2.366467
 30
0.0
 10
2.017422
 20
2.307514
 30
0.0
 10
2.000307
 20
2.226691
 30
0.0
  0
SPLINE
  5
20d
100
AcDbEntity
  8
horse_unicorn_preggo
 62
7
100
AcDbSpline
 70
8
 71
3
 72
8
 73
4
 74
0
 40
0
 40
0
 40
0
 40
0
 40
1
 40
1
 40
1
 40
1
 10
2.000307
 20
2.226691
 30
0.0
 10
1.994126
 20
2.195313
 30
0.0
 10
1.988421
 20
2.167738
 30
0.0
 10
1.988896
 20
2.164886
 30
0.0
  0
SPLINE
  5
20e
100
AcDbEntity
  8
horse_unicorn_preggo
 62
7
100
AcDbSpline
 70
8
 71
3
 72
8
 73
4
 74
0
 40
0
 40
0
 40
0
 40
0
 40
1
 40
1
 40
1
 40
1
 10
1.988896
 20
2.164886
 30
0.0
 10
1.988896
 20
2.155853
 30
0.0
 10
2.032160
 20
2.259971
 30
0.0
 10
2.048800
 20
2.309891
 30
0.0
  0
SPLINE
  5
20f
100
AcDbEntity
  8
horse_unicorn_preggo
 62
7
100
AcDbSpline
 70
8
 71
3
 72
8
 73
4
 74
0
 40
0
 40
0
 40
0
 40
0
 40
1
 40
1
 40
1
 40
1
 10
2.048800
 20
2.309891
 30
0.0
 10
2.073998
 20
2.384533
 30
0.0
 10
2.073047
 20
2.407354
 30
0.0
 10
2.038341
 20
2.521456
 30
0.0
  0
LWPOLYLINE
  5
210
100
AcDbEntity
  8
horse_unicorn_preggo
 62
7
100
AcDbPolyline
 90
3
 70
0
 10
1.900467
 20
2.556163
 30
0.0
 10
1.914254
 20
2.595148
 30
0.0
 10
1.929943
 20
2.568048
 30
0.0
  0
SPLINE
  5
211
100
AcDbEntity
  8
horse_unicorn_preggo
 62
7
100
AcDbSpline
 70
8
 71
3
 72
8
 73
4
 74
0
 40
0
 40
0
 40
0
 40
0
 40
1
 40
1
 40
1
 40
1
 10
2.040718
 20
2.521456
 30
0.0
 10
2.043095
 20
2.516227
 30
0.0
 10
2.070195
 20
2.452044
 30
0.0
 10
2.100622
 20
2.378828
 30
0.0
  0
SPLINE
  5
212
100
AcDbEntity
  8
horse_unicorn_preggo
 62
7
100
AcDbSpline
 70
8
 71
3
 72
8
 73
4
 74
0
 40
0
 40
0
 40
0
 40
0
 40
1
 40
1
 40
1
 40
1
 10
2.100622
 20
2.378828
 30
0.0
 10
2.130574
 20
2.305612
 30
0.0
 10
2.154345
 20
2.250938
 30
0.0
 10
2.152919
 20
2.257594
 30
0.0
  0
SPLINE
  5
213
100
AcDbEntity
  8
horse_unicorn_preggo
 62
7
100
AcDbSpline
 70
8
 71
3
 72
8
 73
4
 74
0
 40
0
 40
0
 40
0
 40
0
 40
1
 40
1
 40
1
 40
1
 10
2.152919
 20
2.257594
 30
0.0
 10
2.151017
 20
2.264250
 30
0.0
 10
2.141509
 20
2.301809
 30
0.0
 10
2.131049
 20
2.341745
 30
0.0
  0
SPLINE
  5
214
100
AcDbEntity
  8
horse_unicorn_preggo
 62
7
100
AcDbSpline
 70
8
 71
3
 72
8
 73
4
 74
0
 40
0
 40
0
 40
0
 40
0
 40
1
 40
1
 40
1
 40
1
 10
2.131049
 20
2.341745
 30
0.0
 10
2.118213
 20
2.391665
 30
0.0
 10
2.111557
 20
2.429224
 30
0.0
 10
2.109655
 20
2.462979
 30
0.0
  0
LWPOLYLINE
  5
215
100
AcDbEntity
  8
horse_unicorn_preggo
 62
7
100
AcDbPolyline
 90
3
 70
0
 10
2.038341
 20
2.521456
 30
0.0
 10
2.035488
 20
2.530965
 30
0.0
 10
2.040718
 20
2.521456
 30
0.0
  0
SPLINE
  5
216
100
AcDbEntity
  8
horse_unicorn_preggo
 62
7
100
AcDbSpline
 70
8
 71
3
 72
8
 73
4
 74
0
 40
0
 40
0
 40
0
 40
0
 40
1
 40
1
 40
1
 40
1
 10
2.134853
 20
2.458700
 30
0.0
 10
2.198560
 20
2.338417
 30
0.0
 10
2.268448
 20
2.262348
 30
0.0
 10
2.401092
 20
2.167738
 30
0.0
  0
SPLINE
  5
217
100
AcDbEntity
  8
horse_unicorn_preggo
 62
7
100
AcDbSpline
 70
8
 71
3
 72
8
 73
4
 74
0
 40
0
 40
0
 40
0
 40
0
 40
1
 40
1
 40
1
 40
1
 10
2.401092
 20
2.167738
 30
0.0
 10
2.454815
 20
2.129704
 30
0.0
 10
2.549901
 20
2.074079
 30
0.0
 10
2.593165
 20
2.056013
 30
0.0
  0
LWPOLYLINE
  5
218
100
AcDbEntity
  8
horse_unicorn_preggo
 62
7
100
AcDbPolyline
 90
3
 70
0
 10
2.109655
 20
2.462979
 30
0.0
 10
2.106802
 20
2.511948
 30
0.0
 10
2.134853
 20
2.458700
 30
0.0
  0
SPLINE
  5
219
100
AcDbEntity
  8
horse_unicorn_preggo
 62
7
100
AcDbSpline
 70
8
 71
3
 72
8
 73
4
 74
0
 40
0
 40
0
 40
0
 40
0
 40
1
 40
1
 40
1
 40
1
 10
2.558934
 20
1.975666
 30
0.0
 10
2.523752
 20
1.938582
 30
0.0
 10
2.451487
 20
1.864416
 30
0.0
 10
2.398715
 20
1.810692
 30
0.0
  0
LWPOLYLINE
  5
21a
100
AcDbEntity
  8
horse_unicorn_preggo
 62
7
100
AcDbPolyline
 90
3
 70
0
 10
2.593165
 20
2.056013
 30
0.0
 10
2.623117
 20
2.043652
 30
0.0
 10
2.558934
 20
1.975666
 30
0.0
  0
SPLINE
  5
21b
100
AcDbEntity
  8
horse_unicorn_preggo
 62
7
100
AcDbSpline
 70
8
 71
3
 72
8
 73
4
 74
0
 40
0
 40
0
 40
0
 40
0
 40
1
 40
1
 40
1
 40
1
 10
2.302203
 20
1.683278
 30
0.0
 10
2.302203
 20
1.656178
 30
0.0
 10
2.304105
 20
1.650473
 30
0.0
 10
2.321220
 20
1.625276
 30
0.0
  0
SPLINE
  5
21c
100
AcDbEntity
  8
horse_unicorn_preggo
 62
7
100
AcDbSpline
 70
8
 71
3
 72
8
 73
4
 74
0
 40
0
 40
0
 40
0
 40
0
 40
1
 40
1
 40
1
 40
1
 10
2.321220
 20
1.625276
 30
0.0
 10
2.340713
 20
1.596750
 30
0.0
 10
2.434847
 20
1.514976
 30
0.0
 10
2.501407
 20
1.469335
 30
0.0
  0
SPLINE
  5
21d
100
AcDbEntity
  8
horse_unicorn_preggo
 62
7
100
AcDbSpline
 70
8
 71
3
 72
8
 73
4
 74
0
 40
0
 40
0
 40
0
 40
0
 40
1
 40
1
 40
1
 40
1
 10
2.501407
 20
1.469335
 30
0.0
 10
2.700611
 20
1.331937
 30
0.0
 10
2.897914
 20
1.169816
 30
0.0
 10
3.021050
 20
1.042877
 30
0.0
  0
LWPOLYLINE
  5
21e
100
AcDbEntity
  8
horse_unicorn_preggo
 62
7
100
AcDbPolyline
 90
3
 70
0
 10
2.398715
 20
1.810692
 30
0.0
 10
2.302203
 20
1.712754
 30
0.0
 10
2.302203
 20
1.683278
 30
0.0
  0
SPLINE
  5
21f
100
AcDbEntity
  8
horse_unicorn_preggo
 62
7
100
AcDbSpline
 70
8
 71
3
 72
8
 73
4
 74
0
 40
0
 40
0
 40
0
 40
0
 40
1
 40
1
 40
1
 40
1
 10
3.062887
 20
0.960153
 30
0.0
 10
3.062887
 20
0.928774
 30
0.0
 10
3.064789
 20
0.916889
 30
0.0
 10
3.072871
 20
0.902626
 30
0.0
  0
LWPOLYLINE
  5
220
100
AcDbEntity
  8
horse_unicorn_preggo
 62
7
100
AcDbPolyline
 90
3
 70
0
 10
3.021050
 20
1.042877
 30
0.0
 10
3.062412
 20
1.000088
 30
0.0
 10
3.062887
 20
0.960153
 30
0.0
  0
SPLINE
  5
221
100
AcDbEntity
  8
horse_unicorn_preggo
 62
7
100
AcDbSpline
 70
8
 71
3
 72
8
 73
4
 74
0
 40
0
 40
0
 40
0
 40
0
 40
1
 40
1
 40
1
 40
1
 10
3.057182
 20
0.840345
 30
0.0
 10
3.043395
 20
0.815623
 30
0.0
 10
3.027705
 20
0.782343
 30
0.0
 10
3.022951
 20
0.766178
 30
0.0
  0
SPLINE
  5
222
100
AcDbEntity
  8
horse_unicorn_preggo
 62
7
100
AcDbSpline
 70
8
 71
3
 72
8
 73
4
 74
0
 40
0
 40
0
 40
0
 40
0
 40
1
 40
1
 40
1
 40
1
 10
3.022951
 20
0.766178
 30
0.0
 10
3.010115
 20
0.723390
 30
0.0
 10
3.017722
 20
0.664437
 30
0.0
 10
3.047198
 20
0.581712
 30
0.0
  0
SPLINE
  5
223
100
AcDbEntity
  8
horse_unicorn_preggo
 62
7
100
AcDbSpline
 70
8
 71
3
 72
8
 73
4
 74
0
 40
0
 40
0
 40
0
 40
0
 40
1
 40
1
 40
1
 40
1
 10
3.047198
 20
0.581712
 30
0.0
 10
3.068117
 20
0.521808
 30
0.0
 10
3.070019
 20
0.518956
 30
0.0
 10
3.102823
 20
0.485200
 30
0.0
  0
SPLINE
  5
224
100
AcDbEntity
  8
horse_unicorn_preggo
 62
7
100
AcDbSpline
 70
8
 71
3
 72
8
 73
4
 74
0
 40
0
 40
0
 40
0
 40
0
 40
1
 40
1
 40
1
 40
1
 10
3.102823
 20
0.485200
 30
0.0
 10
3.121365
 20
0.466183
 30
0.0
 10
3.139906
 20
0.448593
 30
0.0
 10
3.143710
 20
0.446215
 30
0.0
  0
SPLINE
  5
225
100
AcDbEntity
  8
horse_unicorn_preggo
 62
7
100
AcDbSpline
 70
8
 71
3
 72
8
 73
4
 74
0
 40
0
 40
0
 40
0
 40
0
 40
1
 40
1
 40
1
 40
1
 10
3.143710
 20
0.446215
 30
0.0
 10
3.150841
 20
0.442412
 30
0.0
 10
3.182219
 20
0.453347
 30
0.0
 10
3.185547
 20
0.460478
 30
0.0
  0
SPLINE
  5
226
100
AcDbEntity
  8
horse_unicorn_preggo
 62
7
100
AcDbSpline
 70
8
 71
3
 72
8
 73
4
 74
0
 40
0
 40
0
 40
0
 40
0
 40
1
 40
1
 40
1
 40
1
 10
3.185547
 20
0.460478
 30
0.0
 10
3.186023
 20
0.461905
 30
0.0
 10
3.203614
 20
0.486627
 30
0.0
 10
3.224532
 20
0.515152
 30
0.0
  0
SPLINE
  5
227
100
AcDbEntity
  8
horse_unicorn_preggo
 62
7
100
AcDbSpline
 70
8
 71
3
 72
8
 73
4
 74
0
 40
0
 40
0
 40
0
 40
0
 40
1
 40
1
 40
1
 40
1
 10
3.224532
 20
0.515152
 30
0.0
 10
3.245451
 20
0.543678
 30
0.0
 10
3.264944
 20
0.575056
 30
0.0
 10
3.267321
 20
0.585040
 30
0.0
  0
SPLINE
  5
228
100
AcDbEntity
  8
horse_unicorn_preggo
 62
7
100
AcDbSpline
 70
8
 71
3
 72
8
 73
4
 74
0
 40
0
 40
0
 40
0
 40
0
 40
1
 40
1
 40
1
 40
1
 10
3.267321
 20
0.585040
 30
0.0
 10
3.270174
 20
0.595024
 30
0.0
 10
3.274452
 20
0.612140
 30
0.0
 10
3.277305
 20
0.623550
 30
0.0
  0
SPLINE
  5
229
100
AcDbEntity
  8
horse_unicorn_preggo
 62
7
100
AcDbSpline
 70
8
 71
3
 72
8
 73
4
 74
0
 40
0
 40
0
 40
0
 40
0
 40
1
 40
1
 40
1
 40
1
 10
3.277305
 20
0.623550
 30
0.0
 10
3.280158
 20
0.634485
 30
0.0
 10
3.286813
 20
0.650649
 30
0.0
 10
3.292043
 20
0.659207
 30
0.0
  0
SPLINE
  5
22a
100
AcDbEntity
  8
horse_unicorn_preggo
 62
7
100
AcDbSpline
 70
8
 71
3
 72
8
 73
4
 74
0
 40
0
 40
0
 40
0
 40
0
 40
1
 40
1
 40
1
 40
1
 10
3.292043
 20
0.659207
 30
0.0
 10
3.302503
 20
0.675847
 30
0.0
 10
3.306781
 20
0.733374
 30
0.0
 10
3.311060
 20
0.888838
 30
0.0
  0
LWPOLYLINE
  5
22b
100
AcDbEntity
  8
horse_unicorn_preggo
 62
7
100
AcDbPolyline
 90
3
 70
0
 10
3.072871
 20
0.902626
 30
0.0
 10
3.082855
 20
0.885035
 30
0.0
 10
3.057182
 20
0.840345
 30
0.0
  0
SPLINE
  5
22c
100
AcDbEntity
  8
horse_unicorn_preggo
 62
7
100
AcDbSpline
 70
8
 71
3
 72
8
 73
4
 74
0
 40
0
 40
0
 40
0
 40
0
 40
1
 40
1
 40
1
 40
1
 10
3.355275
 20
0.912134
 30
0.0
 10
3.378571
 20
0.892166
 30
0.0
 10
3.424687
 20
0.854132
 30
0.0
 10
3.457492
 20
0.827508
 30
0.0
  0
SPLINE
  5
22d
100
AcDbEntity
  8
horse_unicorn_preggo
 62
7
100
AcDbSpline
 70
8
 71
3
 72
8
 73
4
 74
0
 40
0
 40
0
 40
0
 40
0
 40
1
 40
1
 40
1
 40
1
 10
3.457492
 20
0.827508
 30
0.0
 10
3.490296
 20
0.800884
 30
0.0
 10
3.543544
 20
0.756194
 30
0.0
 10
3.576349
 20
0.728144
 30
0.0
  0
SPLINE
  5
22e
100
AcDbEntity
  8
horse_unicorn_preggo
 62
7
100
AcDbSpline
 70
8
 71
3
 72
8
 73
4
 74
0
 40
0
 40
0
 40
0
 40
0
 40
1
 40
1
 40
1
 40
1
 10
3.576349
 20
0.728144
 30
0.0
 10
3.633400
 20
0.678699
 30
0.0
 10
3.636728
 20
0.675371
 30
0.0
 10
3.656696
 20
0.633534
 30
0.0
  0
LWPOLYLINE
  5
22f
100
AcDbEntity
  8
horse_unicorn_preggo
 62
7
100
AcDbPolyline
 90
3
 70
0
 10
3.311060
 20
0.888838
 30
0.0
 10
3.312487
 20
0.948742
 30
0.0
 10
3.355275
 20
0.912134
 30
0.0
  0
SPLINE
  5
230
100
AcDbEntity
  8
horse_unicorn_preggo
 62
7
100
AcDbSpline
 70
8
 71
3
 72
8
 73
4
 74
0
 40
0
 40
0
 40
0
 40
0
 40
1
 40
1
 40
1
 40
1
 10
3.704714
 20
0.585040
 30
0.0
 10
3.719453
 20
0.581712
 30
0.0
 10
3.741798
 20
0.579335
 30
0.0
 10
3.755110
 20
0.579335
 30
0.0
  0
SPLINE
  5
231
100
AcDbEntity
  8
horse_unicorn_preggo
 62
7
100
AcDbSpline
 70
8
 71
3
 72
8
 73
4
 74
0
 40
0
 40
0
 40
0
 40
0
 40
1
 40
1
 40
1
 40
1
 10
3.755110
 20
0.579335
 30
0.0
 10
3.776504
 20
0.578860
 30
0.0
 10
3.779832
 20
0.577433
 30
0.0
 10
3.795996
 20
0.558416
 30
0.0
  0
LWPOLYLINE
  5
232
100
AcDbEntity
  8
horse_unicorn_preggo
 62
7
100
AcDbPolyline
 90
3
 70
0
 10
3.656696
 20
0.633534
 30
0.0
 10
3.677615
 20
0.590270
 30
0.0
 10
3.704714
 20
0.585040
 30
0.0
  0
SPLINE
  5
233
100
AcDbEntity
  8
horse_unicorn_preggo
 62
7
100
AcDbSpline
 70
8
 71
3
 72
8
 73
4
 74
0
 40
0
 40
0
 40
0
 40
0
 40
1
 40
1
 40
1
 40
1
 10
3.804079
 20
0.507546
 30
0.0
 10
3.798849
 20
0.490906
 30
0.0
 10
3.793144
 20
0.459052
 30
0.0
 10
3.792193
 20
0.436707
 30
0.0
  0
SPLINE
  5
234
100
AcDbEntity
  8
horse_unicorn_preggo
 62
7
100
AcDbSpline
 70
8
 71
3
 72
8
 73
4
 74
0
 40
0
 40
0
 40
0
 40
0
 40
1
 40
1
 40
1
 40
1
 10
3.792193
 20
0.436707
 30
0.0
 10
3.789816
 20
0.399148
 30
0.0
 10
3.790767
 20
0.394869
 30
0.0
 10
3.803128
 20
0.373000
 30
0.0
  0
SPLINE
  5
235
100
AcDbEntity
  8
horse_unicorn_preggo
 62
7
100
AcDbSpline
 70
8
 71
3
 72
8
 73
4
 74
0
 40
0
 40
0
 40
0
 40
0
 40
1
 40
1
 40
1
 40
1
 10
3.803128
 20
0.373000
 30
0.0
 10
3.824047
 20
0.336392
 30
0.0
 10
3.870163
 20
0.312620
 30
0.0
 10
3.955740
 20
0.293128
 30
0.0
  0
LWPOLYLINE
  5
236
100
AcDbEntity
  8
horse_unicorn_preggo
 62
7
100
AcDbPolyline
 90
3
 70
0
 10
3.795996
 20
0.558416
 30
0.0
 10
3.813587
 20
0.537973
 30
0.0
 10
3.804079
 20
0.507546
 30
0.0
  0
SPLINE
  5
237
100
AcDbEntity
  8
horse_unicorn_preggo
 62
7
100
AcDbSpline
 70
8
 71
3
 72
8
 73
4
 74
0
 40
0
 40
0
 40
0
 40
0
 40
1
 40
1
 40
1
 40
1
 10
4.078876
 20
0.284570
 30
0.0
 10
4.109778
 20
0.288373
 30
0.0
 10
4.131648
 20
0.291701
 30
0.0
 10
4.127369
 20
0.292652
 30
0.0
  0
SPLINE
  5
238
100
AcDbEntity
  8
horse_unicorn_preggo
 62
7
100
AcDbSpline
 70
8
 71
3
 72
8
 73
4
 74
0
 40
0
 40
0
 40
0
 40
0
 40
1
 40
1
 40
1
 40
1
 10
4.127369
 20
0.292652
 30
0.0
 10
4.121189
 20
0.294079
 30
0.0
 10
4.118336
 20
0.302636
 30
0.0
 10
4.115959
 20
0.325457
 30
0.0
  0
SPLINE
  5
239
100
AcDbEntity
  8
horse_unicorn_preggo
 62
7
100
AcDbSpline
 70
8
 71
3
 72
8
 73
4
 74
0
 40
0
 40
0
 40
0
 40
0
 40
1
 40
1
 40
1
 40
1
 10
4.115959
 20
0.325457
 30
0.0
 10
4.114057
 20
0.344949
 30
0.0
 10
4.106450
 20
0.370147
 30
0.0
 10
4.095991
 20
0.392968
 30
0.0
  0
SPLINE
  5
23a
100
AcDbEntity
  8
horse_unicorn_preggo
 62
7
100
AcDbSpline
 70
8
 71
3
 72
8
 73
4
 74
0
 40
0
 40
0
 40
0
 40
0
 40
1
 40
1
 40
1
 40
1
 10
4.095991
 20
0.392968
 30
0.0
 10
4.086483
 20
0.414362
 30
0.0
 10
4.076499
 20
0.446215
 30
0.0
 10
4.072220
 20
0.471888
 30
0.0
  0
SPLINE
  5
23b
100
AcDbEntity
  8
horse_unicorn_preggo
 62
7
100
AcDbSpline
 70
8
 71
3
 72
8
 73
4
 74
0
 40
0
 40
0
 40
0
 40
0
 40
1
 40
1
 40
1
 40
1
 10
4.072220
 20
0.471888
 30
0.0
 10
4.060809
 20
0.539875
 30
0.0
 10
4.059383
 20
0.541776
 30
0.0
 10
4.005660
 20
0.585516
 30
0.0
  0
SPLINE
  5
23c
100
AcDbEntity
  8
horse_unicorn_preggo
 62
7
100
AcDbSpline
 70
8
 71
3
 72
8
 73
4
 74
0
 40
0
 40
0
 40
0
 40
0
 40
1
 40
1
 40
1
 40
1
 10
4.005660
 20
0.585516
 30
0.0
 10
3.967626
 20
0.615943
 30
0.0
 10
3.947658
 20
0.636862
 30
0.0
 10
3.915329
 20
0.680126
 30
0.0
  0
SPLINE
  5
23d
100
AcDbEntity
  8
horse_unicorn_preggo
 62
7
100
AcDbSpline
 70
8
 71
3
 72
8
 73
4
 74
0
 40
0
 40
0
 40
0
 40
0
 40
1
 40
1
 40
1
 40
1
 10
3.915329
 20
0.680126
 30
0.0
 10
3.892033
 20
0.710553
 30
0.0
 10
3.864933
 20
0.751440
 30
0.0
 10
3.854474
 20
0.771408
 30
0.0
  0
SPLINE
  5
23e
100
AcDbEntity
  8
horse_unicorn_preggo
 62
7
100
AcDbSpline
 70
8
 71
3
 72
8
 73
4
 74
0
 40
0
 40
0
 40
0
 40
0
 40
1
 40
1
 40
1
 40
1
 10
3.854474
 20
0.771408
 30
0.0
 10
3.844015
 20
0.791376
 30
0.0
 10
3.833555
 20
0.807540
 30
0.0
 10
3.831653
 20
0.807540
 30
0.0
  0
SPLINE
  5
23f
100
AcDbEntity
  8
horse_unicorn_preggo
 62
7
100
AcDbSpline
 70
8
 71
3
 72
8
 73
4
 74
0
 40
0
 40
0
 40
0
 40
0
 40
1
 40
1
 40
1
 40
1
 10
3.831653
 20
0.807540
 30
0.0
 10
3.829752
 20
0.807540
 30
0.0
 10
3.812636
 20
0.818951
 30
0.0
 10
3.793619
 20
0.832738
 30
0.0
  0
SPLINE
  5
240
100
AcDbEntity
  8
horse_unicorn_preggo
 62
7
100
AcDbSpline
 70
8
 71
3
 72
8
 73
4
 74
0
 40
0
 40
0
 40
0
 40
0
 40
1
 40
1
 40
1
 40
1
 10
3.793619
 20
0.832738
 30
0.0
 10
3.753208
 20
0.862214
 30
0.0
 10
3.652417
 20
0.928774
 30
0.0
 10
3.595366
 20
0.963956
 30
0.0
  0
SPLINE
  5
241
100
AcDbEntity
  8
horse_unicorn_preggo
 62
7
100
AcDbSpline
 70
8
 71
3
 72
8
 73
4
 74
0
 40
0
 40
0
 40
0
 40
0
 40
1
 40
1
 40
1
 40
1
 10
3.595366
 20
0.963956
 30
0.0
 10
3.519298
 20
1.010072
 30
0.0
 10
3.496952
 20
1.024811
 30
0.0
 10
3.449885
 20
1.058091
 30
0.0
  0
SPLINE
  5
242
100
AcDbEntity
  8
horse_unicorn_preggo
 62
7
100
AcDbSpline
 70
8
 71
3
 72
8
 73
4
 74
0
 40
0
 40
0
 40
0
 40
0
 40
1
 40
1
 40
1
 40
1
 10
3.449885
 20
1.058091
 30
0.0
 10
3.424212
 20
1.076632
 30
0.0
 10
3.388080
 20
1.104207
 30
0.0
 10
3.369538
 20
1.119421
 30
0.0
  0
SPLINE
  5
243
100
AcDbEntity
  8
horse_unicorn_preggo
 62
7
100
AcDbSpline
 70
8
 71
3
 72
8
 73
4
 74
0
 40
0
 40
0
 40
0
 40
0
 40
1
 40
1
 40
1
 40
1
 10
3.369538
 20
1.119421
 30
0.0
 10
3.351472
 20
1.135110
 30
0.0
 10
3.321995
 20
1.158406
 30
0.0
 10
3.304880
 20
1.172193
 30
0.0
  0
SPLINE
  5
244
100
AcDbEntity
  8
horse_unicorn_preggo
 62
7
100
AcDbSpline
 70
8
 71
3
 72
8
 73
4
 74
0
 40
0
 40
0
 40
0
 40
0
 40
1
 40
1
 40
1
 40
1
 10
3.304880
 20
1.172193
 30
0.0
 10
3.215975
 20
1.242556
 30
0.0
 10
3.200761
 20
1.280115
 30
0.0
 10
3.200761
 20
1.431777
 30
0.0
  0
SPLINE
  5
245
100
AcDbEntity
  8
horse_unicorn_preggo
 62
7
100
AcDbSpline
 70
8
 71
3
 72
8
 73
4
 74
0
 40
0
 40
0
 40
0
 40
0
 40
1
 40
1
 40
1
 40
1
 10
3.200761
 20
1.431777
 30
0.0
 10
3.200761
 20
1.514501
 30
0.0
 10
3.205040
 20
1.542076
 30
0.0
 10
3.223582
 20
1.575831
 30
0.0
  0
SPLINE
  5
246
100
AcDbEntity
  8
horse_unicorn_preggo
 62
7
100
AcDbSpline
 70
8
 71
3
 72
8
 73
4
 74
0
 40
0
 40
0
 40
0
 40
0
 40
1
 40
1
 40
1
 40
1
 10
3.223582
 20
1.575831
 30
0.0
 10
3.227860
 20
1.583913
 30
0.0
 10
3.236418
 20
1.599603
 30
0.0
 10
3.242123
 20
1.610062
 30
0.0
  0
SPLINE
  5
247
100
AcDbEntity
  8
horse_unicorn_preggo
 62
7
100
AcDbSpline
 70
8
 71
3
 72
8
 73
4
 74
0
 40
0
 40
0
 40
0
 40
0
 40
1
 40
1
 40
1
 40
1
 10
3.242123
 20
1.610062
 30
0.0
 10
3.251156
 20
1.626226
 30
0.0
 10
3.254009
 20
1.643817
 30
0.0
 10
3.260190
 20
1.718935
 30
0.0
  0
SPLINE
  5
248
100
AcDbEntity
  8
horse_unicorn_preggo
 62
7
100
AcDbSpline
 70
8
 71
3
 72
8
 73
4
 74
0
 40
0
 40
0
 40
0
 40
0
 40
1
 40
1
 40
1
 40
1
 10
3.260190
 20
1.718935
 30
0.0
 10
3.263993
 20
1.767904
 30
0.0
 10
3.270649
 20
1.834939
 30
0.0
 10
3.274452
 20
1.867744
 30
0.0
  0
SPLINE
  5
249
100
AcDbEntity
  8
horse_unicorn_preggo
 62
7
100
AcDbSpline
 70
8
 71
3
 72
8
 73
4
 74
0
 40
0
 40
0
 40
0
 40
0
 40
1
 40
1
 40
1
 40
1
 10
3.274452
 20
1.867744
 30
0.0
 10
3.278731
 20
1.900548
 30
0.0
 10
3.283010
 20
1.961878
 30
0.0
 10
3.284912
 20
2.004667
 30
0.0
  0
LWPOLYLINE
  5
24a
100
AcDbEntity
  8
horse_unicorn_preggo
 62
7
100
AcDbPolyline
 90
3
 70
0
 10
3.955740
 20
0.293128
 30
0.0
 10
4.023251
 20
0.278389
 30
0.0
 10
4.078876
 20
0.284570
 30
0.0
  0
SPLINE
  5
24b
100
AcDbEntity
  8
horse_unicorn_preggo
 62
7
100
AcDbSpline
 70
8
 71
3
 72
8
 73
4
 74
0
 40
0
 40
0
 40
0
 40
0
 40
1
 40
1
 40
1
 40
1
 10
3.317716
 20
2.081686
 30
0.0
 10
3.347668
 20
2.081686
 30
0.0
 10
3.348144
 20
2.081211
 30
0.0
 10
3.384752
 20
2.051734
 30
0.0
  0
SPLINE
  5
24c
100
AcDbEntity
  8
horse_unicorn_preggo
 62
7
100
AcDbSpline
 70
8
 71
3
 72
8
 73
4
 74
0
 40
0
 40
0
 40
0
 40
0
 40
1
 40
1
 40
1
 40
1
 10
3.384752
 20
2.051734
 30
0.0
 10
3.405195
 20
2.035570
 30
0.0
 10
3.443229
 20
2.006568
 30
0.0
 10
3.469378
 20
1.987551
 30
0.0
  0
SPLINE
  5
24d
100
AcDbEntity
  8
horse_unicorn_preggo
 62
7
100
AcDbSpline
 70
8
 71
3
 72
8
 73
4
 74
0
 40
0
 40
0
 40
0
 40
0
 40
1
 40
1
 40
1
 40
1
 10
3.469378
 20
1.987551
 30
0.0
 10
3.495526
 20
1.968534
 30
0.0
 10
3.533560
 20
1.940009
 30
0.0
 10
3.554479
 20
1.924320
 30
0.0
  0
SPLINE
  5
24e
100
AcDbEntity
  8
horse_unicorn_preggo
 62
7
100
AcDbSpline
 70
8
 71
3
 72
8
 73
4
 74
0
 40
0
 40
0
 40
0
 40
0
 40
1
 40
1
 40
1
 40
1
 10
3.554479
 20
1.924320
 30
0.0
 10
3.605825
 20
1.885334
 30
0.0
 10
3.647188
 20
1.862038
 30
0.0
 10
3.730863
 20
1.824480
 30
0.0
  0
SPLINE
  5
24f
100
AcDbEntity
  8
horse_unicorn_preggo
 62
7
100
AcDbSpline
 70
8
 71
3
 72
8
 73
4
 74
0
 40
0
 40
0
 40
0
 40
0
 40
1
 40
1
 40
1
 40
1
 10
3.730863
 20
1.824480
 30
0.0
 10
3.812161
 20
1.787872
 30
0.0
 10
3.804499
 20
1.024272
 30
0.0
 10
3.887223
 20
1.003828
 30
0.0
  0
SPLINE
  5
250
100
AcDbEntity
  8
horse_unicorn_preggo
 62
7
100
AcDbSpline
 70
8
 71
3
 72
8
 73
4
 74
0
 40
0
 40
0
 40
0
 40
0
 40
1
 40
1
 40
1
 40
1
 10
3.887223
 20
1.003828
 30
0.0
 10
3.942373
 20
0.990041
 30
0.0
 10
4.304759
 20
1.122093
 30
0.0
 10
4.382729
 20
1.115437
 30
0.0
  0
SPLINE
  5
251
100
AcDbEntity
  8
horse_unicorn_preggo
 62
7
100
AcDbSpline
 70
8
 71
3
 72
8
 73
4
 74
0
 40
0
 40
0
 40
0
 40
0
 40
1
 40
1
 40
1
 40
1
 10
4.382729
 20
1.115437
 30
0.0
 10
4.406025
 20
1.113535
 30
0.0
 10
4.696563
 20
0.680523
 30
0.0
 10
4.755382
 20
1.144628
 30
0.0
  0
SPLINE
  5
252
100
AcDbEntity
  8
horse_unicorn_preggo
 62
7
100
AcDbSpline
 70
8
 71
3
 72
8
 73
4
 74
0
 40
0
 40
0
 40
0
 40
0
 40
1
 40
1
 40
1
 40
1
 10
4.755382
 20
1.144628
 30
0.0
 10
4.740644
 20
1.139398
 30
0.0
 10
4.461536
 20
1.292369
 30
0.0
 10
4.646478
 20
1.288090
 30
0.0
  0
SPLINE
  5
253
100
AcDbEntity
  8
horse_unicorn_preggo
 62
7
100
AcDbSpline
 70
8
 71
3
 72
8
 73
4
 74
0
 40
0
 40
0
 40
0
 40
0
 40
1
 40
1
 40
1
 40
1
 10
4.646478
 20
1.288090
 30
0.0
 10
4.890372
 20
1.282385
 30
0.0
 10
4.817215
 20
1.660457
 30
0.0
 10
4.887102
 20
1.560142
 30
0.0
  0
SPLINE
  5
254
100
AcDbEntity
  8
horse_unicorn_preggo
 62
7
100
AcDbSpline
 70
8
 71
3
 72
8
 73
4
 74
0
 40
0
 40
0
 40
0
 40
0
 40
1
 40
1
 40
1
 40
1
 10
4.887102
 20
1.560142
 30
0.0
 10
4.935121
 20
1.490730
 30
0.0
 10
4.947482
 20
1.463630
 30
0.0
 10
4.955089
 20
1.406579
 30
0.0
  0
SPLINE
  5
255
100
AcDbEntity
  8
horse_unicorn_preggo
 62
7
100
AcDbSpline
 70
8
 71
3
 72
8
 73
4
 74
0
 40
0
 40
0
 40
0
 40
0
 40
1
 40
1
 40
1
 40
1
 10
4.955089
 20
1.406579
 30
0.0
 10
4.974106
 20
1.267754
 30
0.0
 10
5.014517
 20
1.153652
 30
0.0
 10
5.106275
 20
0.979645
 30
0.0
  0
LWPOLYLINE
  5
256
100
AcDbEntity
  8
horse_unicorn_preggo
 62
7
100
AcDbPolyline
 90
3
 70
0
 10
3.284912
 20
2.004667
 30
0.0
 10
3.287764
 20
2.081686
 30
0.0
 10
3.317716
 20
2.081686
 30
0.0
  0
SPLINE
  5
257
100
AcDbEntity
  8
horse_unicorn_preggo
 62
7
100
AcDbSpline
 70
8
 71
3
 72
8
 73
4
 74
0
 40
0
 40
0
 40
0
 40
0
 40
1
 40
1
 40
1
 40
1
 10
5.137653
 20
0.878854
 30
0.0
 10
5.126718
 20
0.862214
 30
0.0
 10
5.120062
 20
0.858411
 30
0.0
 10
5.070142
 20
0.840820
 30
0.0
  0
SPLINE
  5
258
100
AcDbEntity
  8
horse_unicorn_preggo
 62
7
100
AcDbSpline
 70
8
 71
3
 72
8
 73
4
 74
0
 40
0
 40
0
 40
0
 40
0
 40
1
 40
1
 40
1
 40
1
 10
5.070142
 20
0.840820
 30
0.0
 10
5.039715
 20
0.829410
 30
0.0
 10
4.971253
 20
0.802786
 30
0.0
 10
4.918005
 20
0.780916
 30
0.0
  0
LWPOLYLINE
  5
259
100
AcDbEntity
  8
horse_unicorn_preggo
 62
7
100
AcDbPolyline
 90
3
 70
0
 10
5.106275
 20
0.979645
 30
0.0
 10
5.149538
 20
0.897396
 30
0.0
 10
5.137653
 20
0.878854
 30
0.0
  0
SPLINE
  5
25a
100
AcDbEntity
  8
horse_unicorn_preggo
 62
7
100
AcDbSpline
 70
8
 71
3
 72
8
 73
4
 74
0
 40
0
 40
0
 40
0
 40
0
 40
1
 40
1
 40
1
 40
1
 10
4.767295
 20
0.740980
 30
0.0
 10
4.727834
 20
0.740980
 30
0.0
 10
4.709293
 20
0.739079
 30
0.0
 10
4.701686
 20
0.734324
 30
0.0
  0
SPLINE
  5
25b
100
AcDbEntity
  8
horse_unicorn_preggo
 62
7
100
AcDbSpline
 70
8
 71
3
 72
8
 73
4
 74
0
 40
0
 40
0
 40
0
 40
0
 40
1
 40
1
 40
1
 40
1
 10
4.701686
 20
0.734324
 30
0.0
 10
4.695981
 20
0.730521
 30
0.0
 10
4.665078
 20
0.721012
 30
0.0
 10
4.633224
 20
0.712930
 30
0.0
  0
SPLINE
  5
25c
100
AcDbEntity
  8
horse_unicorn_preggo
 62
7
100
AcDbSpline
 70
8
 71
3
 72
8
 73
4
 74
0
 40
0
 40
0
 40
0
 40
0
 40
1
 40
1
 40
1
 40
1
 10
4.633224
 20
0.712930
 30
0.0
 10
4.586632
 20
0.701045
 30
0.0
 10
4.564763
 20
0.698192
 30
0.0
 10
4.524827
 20
0.698192
 30
0.0
  0
SPLINE
  5
25d
100
AcDbEntity
  8
horse_unicorn_preggo
 62
7
100
AcDbSpline
 70
8
 71
3
 72
8
 73
4
 74
0
 40
0
 40
0
 40
0
 40
0
 40
1
 40
1
 40
1
 40
1
 10
4.524827
 20
0.698192
 30
0.0
 10
4.480612
 20
0.698192
 30
0.0
 10
4.472530
 20
0.699618
 30
0.0
 10
4.448758
 20
0.711029
 30
0.0
  0
LWPOLYLINE
  5
25e
100
AcDbEntity
  8
horse_unicorn_preggo
 62
7
100
AcDbPolyline
 90
3
 70
0
 10
4.918005
 20
0.780916
 30
0.0
 10
4.821969
 20
0.740980
 30
0.0
 10
4.767295
 20
0.740980
 30
0.0
  0
SPLINE
  5
25f
100
AcDbEntity
  8
horse_unicorn_preggo
 62
7
100
AcDbSpline
 70
8
 71
3
 72
8
 73
4
 74
0
 40
0
 40
0
 40
0
 40
0
 40
1
 40
1
 40
1
 40
1
 10
4.345115
 20
0.816573
 30
0.0
 10
4.318491
 20
0.819426
 30
0.0
 10
4.290916
 20
0.823705
 30
0.0
 10
4.283310
 20
0.826082
 30
0.0
  0
SPLINE
  5
260
100
AcDbEntity
  8
horse_unicorn_preggo
 62
7
100
AcDbSpline
 70
8
 71
3
 72
8
 73
4
 74
0
 40
0
 40
0
 40
0
 40
0
 40
1
 40
1
 40
1
 40
1
 10
4.283310
 20
0.826082
 30
0.0
 10
4.272375
 20
0.829885
 30
0.0
 10
4.266194
 20
0.827508
 30
0.0
 10
4.241472
 20
0.811344
 30
0.0
  0
SPLINE
  5
261
100
AcDbEntity
  8
horse_unicorn_preggo
 62
7
100
AcDbSpline
 70
8
 71
3
 72
8
 73
4
 74
0
 40
0
 40
0
 40
0
 40
0
 40
1
 40
1
 40
1
 40
1
 10
4.241472
 20
0.811344
 30
0.0
 10
4.198683
 20
0.782818
 30
0.0
 10
4.153042
 20
0.722914
 30
0.0
 10
4.124041
 20
0.657781
 30
0.0
  0
SPLINE
  5
262
100
AcDbEntity
  8
horse_unicorn_preggo
 62
7
100
AcDbSpline
 70
8
 71
3
 72
8
 73
4
 74
0
 40
0
 40
0
 40
0
 40
0
 40
1
 40
1
 40
1
 40
1
 10
4.124041
 20
0.657781
 30
0.0
 10
4.102172
 20
0.609287
 30
0.0
 10
4.100745
 20
0.603582
 30
0.0
 10
4.103123
 20
0.575532
 30
0.0
  0
LWPOLYLINE
  5
263
100
AcDbEntity
  8
horse_unicorn_preggo
 62
7
100
AcDbPolyline
 90
5
 70
0
 10
4.448758
 20
0.711029
 30
0.0
 10
4.422610
 20
0.723865
 30
0.0
 10
4.408347
 20
0.767604
 30
0.0
 10
4.393609
 20
0.811344
 30
0.0
 10
4.345115
 20
0.816573
 30
0.0
  0
SPLINE
  5
264
100
AcDbEntity
  8
horse_unicorn_preggo
 62
7
100
AcDbSpline
 70
8
 71
3
 72
8
 73
4
 74
0
 40
0
 40
0
 40
0
 40
0
 40
1
 40
1
 40
1
 40
1
 10
4.236718
 20
0.546055
 30
0.0
 10
4.362706
 20
0.546055
 30
0.0
 10
4.368411
 20
0.546531
 30
0.0
 10
4.374116
 20
0.555564
 30
0.0
  0
SPLINE
  5
265
100
AcDbEntity
  8
horse_unicorn_preggo
 62
7
100
AcDbSpline
 70
8
 71
3
 72
8
 73
4
 74
0
 40
0
 40
0
 40
0
 40
0
 40
1
 40
1
 40
1
 40
1
 10
4.374116
 20
0.555564
 30
0.0
 10
4.379346
 20
0.564597
 30
0.0
 10
4.385051
 20
0.565072
 30
0.0
 10
4.468726
 20
0.565072
 30
0.0
  0
LWPOLYLINE
  5
266
100
AcDbEntity
  8
horse_unicorn_preggo
 62
7
100
AcDbPolyline
 90
3
 70
0
 10
4.103123
 20
0.575532
 30
0.0
 10
4.105024
 20
0.546055
 30
0.0
 10
4.236718
 20
0.546055
 30
0.0
  0
SPLINE
  5
267
100
AcDbEntity
  8
horse_unicorn_preggo
 62
7
100
AcDbSpline
 70
8
 71
3
 72
8
 73
4
 74
0
 40
0
 40
0
 40
0
 40
0
 40
1
 40
1
 40
1
 40
1
 10
4.581403
 20
0.549383
 30
0.0
 10
4.611355
 20
0.530366
 30
0.0
 10
4.636077
 20
0.521808
 30
0.0
 10
4.645585
 20
0.526563
 30
0.0
  0
SPLINE
  5
268
100
AcDbEntity
  8
horse_unicorn_preggo
 62
7
100
AcDbSpline
 70
8
 71
3
 72
8
 73
4
 74
0
 40
0
 40
0
 40
0
 40
0
 40
1
 40
1
 40
1
 40
1
 10
4.645585
 20
0.526563
 30
0.0
 10
4.649864
 20
0.528940
 30
0.0
 10
4.671258
 20
0.532268
 30
0.0
 10
4.693603
 20
0.534169
 30
0.0
  0
SPLINE
  5
269
100
AcDbEntity
  8
horse_unicorn_preggo
 62
7
100
AcDbSpline
 70
8
 71
3
 72
8
 73
4
 74
0
 40
0
 40
0
 40
0
 40
0
 40
1
 40
1
 40
1
 40
1
 10
4.693603
 20
0.534169
 30
0.0
 10
4.739720
 20
0.537973
 30
0.0
 10
4.799148
 20
0.555088
 30
0.0
 10
4.834330
 20
0.574581
 30
0.0
  0
SPLINE
  5
26a
100
AcDbEntity
  8
horse_unicorn_preggo
 62
7
100
AcDbSpline
 70
8
 71
3
 72
8
 73
4
 74
0
 40
0
 40
0
 40
0
 40
0
 40
1
 40
1
 40
1
 40
1
 10
4.834330
 20
0.574581
 30
0.0
 10
4.847642
 20
0.582188
 30
0.0
 10
4.879971
 20
0.593598
 30
0.0
 10
4.905644
 20
0.600729
 30
0.0
  0
SPLINE
  5
26b
100
AcDbEntity
  8
horse_unicorn_preggo
 62
7
100
AcDbSpline
 70
8
 71
3
 72
8
 73
4
 74
0
 40
0
 40
0
 40
0
 40
0
 40
1
 40
1
 40
1
 40
1
 10
4.905644
 20
0.600729
 30
0.0
 10
4.931793
 20
0.607385
 30
0.0
 10
4.965548
 20
0.617369
 30
0.0
 10
4.981237
 20
0.622124
 30
0.0
  0
SPLINE
  5
26c
100
AcDbEntity
  8
horse_unicorn_preggo
 62
7
100
AcDbSpline
 70
8
 71
3
 72
8
 73
4
 74
0
 40
0
 40
0
 40
0
 40
0
 40
1
 40
1
 40
1
 40
1
 10
4.981237
 20
0.622124
 30
0.0
 10
5.090110
 20
0.656354
 30
0.0
 10
5.145260
 20
0.668715
 30
0.0
 10
5.210393
 20
0.674421
 30
0.0
  0
LWPOLYLINE
  5
26d
100
AcDbEntity
  8
horse_unicorn_preggo
 62
7
100
AcDbPolyline
 90
3
 70
0
 10
4.468726
 20
0.565072
 30
0.0
 10
4.557156
 20
0.565072
 30
0.0
 10
4.581403
 20
0.549383
 30
0.0
  0
SPLINE
  5
26e
100
AcDbEntity
  8
horse_unicorn_preggo
 62
7
100
AcDbSpline
 70
8
 71
3
 72
8
 73
4
 74
0
 40
0
 40
0
 40
0
 40
0
 40
1
 40
1
 40
1
 40
1
 10
5.303577
 20
0.704848
 30
0.0
 10
5.317364
 20
0.718160
 30
0.0
 10
5.348267
 20
0.747161
 30
0.0
 10
5.372514
 20
0.768555
 30
0.0
  0
SPLINE
  5
26f
100
AcDbEntity
  8
horse_unicorn_preggo
 62
7
100
AcDbSpline
 70
8
 71
3
 72
8
 73
4
 74
0
 40
0
 40
0
 40
0
 40
0
 40
1
 40
1
 40
1
 40
1
 10
5.372514
 20
0.768555
 30
0.0
 10
5.429090
 20
0.819426
 30
0.0
 10
5.437172
 20
0.835591
 30
0.0
 10
5.433844
 20
0.883609
 30
0.0
  0
SPLINE
  5
270
100
AcDbEntity
  8
horse_unicorn_preggo
 62
7
100
AcDbSpline
 70
8
 71
3
 72
8
 73
4
 74
0
 40
0
 40
0
 40
0
 40
0
 40
1
 40
1
 40
1
 40
1
 10
5.433844
 20
0.883609
 30
0.0
 10
5.432418
 20
0.903101
 30
0.0
 10
5.427664
 20
0.927348
 30
0.0
 10
5.423860
 20
0.937332
 30
0.0
  0
SPLINE
  5
271
100
AcDbEntity
  8
horse_unicorn_preggo
 62
7
100
AcDbSpline
 70
8
 71
3
 72
8
 73
4
 74
0
 40
0
 40
0
 40
0
 40
0
 40
1
 40
1
 40
1
 40
1
 10
5.423860
 20
0.937332
 30
0.0
 10
5.401040
 20
0.990580
 30
0.0
 10
5.390580
 20
1.069025
 30
0.0
 10
5.382022
 20
1.254442
 30
0.0
  0
SPLINE
  5
272
100
AcDbEntity
  8
horse_unicorn_preggo
 62
7
100
AcDbSpline
 70
8
 71
3
 72
8
 73
4
 74
0
 40
0
 40
0
 40
0
 40
0
 40
1
 40
1
 40
1
 40
1
 10
5.382022
 20
1.254442
 30
0.0
 10
5.370137
 20
1.505468
 30
0.0
 10
5.376793
 20
1.620521
 30
0.0
 10
5.403892
 20
1.620521
 30
0.0
  0
SPLINE
  5
273
100
AcDbEntity
  8
horse_unicorn_preggo
 62
7
100
AcDbSpline
 70
8
 71
3
 72
8
 73
4
 74
0
 40
0
 40
0
 40
0
 40
0
 40
1
 40
1
 40
1
 40
1
 10
5.403892
 20
1.620521
 30
0.0
 10
5.433844
 20
1.620521
 30
0.0
 10
5.498978
 20
1.651900
 30
0.0
 10
5.552226
 20
1.691835
 30
0.0
  0
LWPOLYLINE
  5
274
100
AcDbEntity
  8
horse_unicorn_preggo
 62
7
100
AcDbPolyline
 90
3
 70
0
 10
5.210393
 20
0.674421
 30
0.0
 10
5.278379
 20
0.680601
 30
0.0
 10
5.303577
 20
0.704848
 30
0.0
  0
SPLINE
  5
275
100
AcDbEntity
  8
horse_unicorn_preggo
 62
7
100
AcDbSpline
 70
8
 71
3
 72
8
 73
4
 74
0
 40
0
 40
0
 40
0
 40
0
 40
1
 40
1
 40
1
 40
1
 10
5.643508
 20
1.665687
 30
0.0
 10
5.727658
 20
1.599603
 30
0.0
 10
5.872664
 20
1.512124
 30
0.0
 10
5.907370
 20
1.506419
 30
0.0
  0
SPLINE
  5
276
100
AcDbEntity
  8
horse_unicorn_preggo
 62
7
100
AcDbSpline
 70
8
 71
3
 72
8
 73
4
 74
0
 40
0
 40
0
 40
0
 40
0
 40
1
 40
1
 40
1
 40
1
 10
5.907370
 20
1.506419
 30
0.0
 10
5.959667
 20
1.497861
 30
0.0
 10
6.069966
 20
1.442711
 30
0.0
 10
6.108951
 20
1.405628
 30
0.0
  0
SPLINE
  5
277
100
AcDbEntity
  8
horse_unicorn_preggo
 62
7
100
AcDbSpline
 70
8
 71
3
 72
8
 73
4
 74
0
 40
0
 40
0
 40
0
 40
0
 40
1
 40
1
 40
1
 40
1
 10
6.108951
 20
1.405628
 30
0.0
 10
6.132247
 20
1.382808
 30
0.0
 10
6.135100
 20
1.370446
 30
0.0
 10
6.134624
 20
1.291525
 30
0.0
  0
LWPOLYLINE
  5
278
100
AcDbEntity
  8
horse_unicorn_preggo
 62
7
100
AcDbPolyline
 90
3
 70
0
 10
5.552226
 20
1.691835
 30
0.0
 10
5.581702
 20
1.714181
 30
0.0
 10
5.643508
 20
1.665687
 30
0.0
  0
SPLINE
  5
279
100
AcDbEntity
  8
horse_unicorn_preggo
 62
7
100
AcDbSpline
 70
8
 71
3
 72
8
 73
4
 74
0
 40
0
 40
0
 40
0
 40
0
 40
1
 40
1
 40
1
 40
1
 10
6.101820
 20
1.171242
 30
0.0
 10
6.078048
 20
1.122749
 30
0.0
 10
6.059982
 20
1.093272
 30
0.0
 10
6.034309
 20
1.061894
 30
0.0
  0
SPLINE
  5
27a
100
AcDbEntity
  8
horse_unicorn_preggo
 62
7
100
AcDbSpline
 70
8
 71
3
 72
8
 73
4
 74
0
 40
0
 40
0
 40
0
 40
0
 40
1
 40
1
 40
1
 40
1
 10
6.034309
 20
1.061894
 30
0.0
 10
5.973454
 20
0.987252
 30
0.0
 10
5.904517
 20
0.914987
 30
0.0
 10
5.880746
 20
0.900249
 30
0.0
  0
SPLINE
  5
27b
100
AcDbEntity
  8
horse_unicorn_preggo
 62
7
100
AcDbSpline
 70
8
 71
3
 72
8
 73
4
 74
0
 40
0
 40
0
 40
0
 40
0
 40
1
 40
1
 40
1
 40
1
 10
5.880746
 20
0.900249
 30
0.0
 10
5.864581
 20
0.890265
 30
0.0
 10
5.852696
 20
0.878379
 30
0.0
 10
5.843187
 20
0.861739
 30
0.0
  0
SPLINE
  5
27c
100
AcDbEntity
  8
horse_unicorn_preggo
 62
7
100
AcDbSpline
 70
8
 71
3
 72
8
 73
4
 74
0
 40
0
 40
0
 40
0
 40
0
 40
1
 40
1
 40
1
 40
1
 10
5.843187
 20
0.861739
 30
0.0
 10
5.829875
 20
0.837492
 30
0.0
 10
5.829875
 20
0.837017
 30
0.0
 10
5.836531
 20
0.808491
 30
0.0
  0
LWPOLYLINE
  5
27d
100
AcDbEntity
  8
horse_unicorn_preggo
 62
7
100
AcDbPolyline
 90
3
 70
0
 10
6.134624
 20
1.291525
 30
0.0
 10
6.134149
 20
1.238278
 30
0.0
 10
6.101820
 20
1.171242
 30
0.0
  0
SPLINE
  5
27e
100
AcDbEntity
  8
horse_unicorn_preggo
 62
7
100
AcDbSpline
 70
8
 71
3
 72
8
 73
4
 74
0
 40
0
 40
0
 40
0
 40
0
 40
1
 40
1
 40
1
 40
1
 10
5.796595
 20
0.792327
 30
0.0
 10
5.769971
 20
0.831787
 30
0.0
 10
5.761414
 20
0.835115
 30
0.0
 10
5.710067
 20
0.826557
 30
0.0
  0
SPLINE
  5
27f
100
AcDbEntity
  8
horse_unicorn_preggo
 62
7
100
AcDbSpline
 70
8
 71
3
 72
8
 73
4
 74
0
 40
0
 40
0
 40
0
 40
0
 40
1
 40
1
 40
1
 40
1
 10
5.710067
 20
0.826557
 30
0.0
 10
5.673935
 20
0.820852
 30
0.0
 10
5.667279
 20
0.818000
 30
0.0
 10
5.629245
 20
0.791376
 30
0.0
  0
SPLINE
  5
280
100
AcDbEntity
  8
horse_unicorn_preggo
 62
7
100
AcDbSpline
 70
8
 71
3
 72
8
 73
4
 74
0
 40
0
 40
0
 40
0
 40
0
 40
1
 40
1
 40
1
 40
1
 10
5.629245
 20
0.791376
 30
0.0
 10
5.593588
 20
0.766178
 30
0.0
 10
5.585981
 20
0.758096
 30
0.0
 10
5.568865
 20
0.728144
 30
0.0
  0
LWPOLYLINE
  5
281
100
AcDbEntity
  8
horse_unicorn_preggo
 62
7
100
AcDbPolyline
 90
5
 70
0
 10
5.836531
 20
0.808491
 30
0.0
 10
5.843187
 20
0.779015
 30
0.0
 10
5.830826
 20
0.769982
 30
0.0
 10
5.818465
 20
0.760948
 30
0.0
 10
5.796595
 20
0.792327
 30
0.0
  0
SPLINE
  5
282
100
AcDbEntity
  8
horse_unicorn_preggo
 62
7
100
AcDbSpline
 70
8
 71
3
 72
8
 73
4
 74
0
 40
0
 40
0
 40
0
 40
0
 40
1
 40
1
 40
1
 40
1
 10
5.546520
 20
0.615943
 30
0.0
 10
5.544143
 20
0.561269
 30
0.0
 10
5.545094
 20
0.526087
 30
0.0
 10
5.549373
 20
0.498988
 30
0.0
  0
LWPOLYLINE
  5
283
100
AcDbEntity
  8
horse_unicorn_preggo
 62
7
100
AcDbPolyline
 90
3
 70
0
 10
5.568865
 20
0.728144
 30
0.0
 10
5.549848
 20
0.694389
 30
0.0
 10
5.546520
 20
0.615943
 30
0.0
  0
SPLINE
  5
284
100
AcDbEntity
  8
horse_unicorn_preggo
 62
7
100
AcDbSpline
 70
8
 71
3
 72
8
 73
4
 74
0
 40
0
 40
0
 40
0
 40
0
 40
1
 40
1
 40
1
 40
1
 10
5.588833
 20
0.460478
 30
0.0
 10
5.620212
 20
0.460478
 30
0.0
 10
5.625441
 20
0.462380
 30
0.0
 10
5.678214
 20
0.488528
 30
0.0
  0
SPLINE
  5
285
100
AcDbEntity
  8
horse_unicorn_preggo
 62
7
100
AcDbSpline
 70
8
 71
3
 72
8
 73
4
 74
0
 40
0
 40
0
 40
0
 40
0
 40
1
 40
1
 40
1
 40
1
 10
5.678214
 20
0.488528
 30
0.0
 10
5.750954
 20
0.525612
 30
0.0
 10
5.822268
 20
0.576007
 30
0.0
 10
5.822744
 20
0.590270
 30
0.0
  0
SPLINE
  5
286
100
AcDbEntity
  8
horse_unicorn_preggo
 62
7
100
AcDbSpline
 70
8
 71
3
 72
8
 73
4
 74
0
 40
0
 40
0
 40
0
 40
0
 40
1
 40
1
 40
1
 40
1
 10
5.822744
 20
0.590270
 30
0.0
 10
5.822744
 20
0.596926
 30
0.0
 10
5.826072
 20
0.601205
 30
0.0
 10
5.832252
 20
0.602156
 30
0.0
  0
SPLINE
  5
287
100
AcDbEntity
  8
horse_unicorn_preggo
 62
7
100
AcDbSpline
 70
8
 71
3
 72
8
 73
4
 74
0
 40
0
 40
0
 40
0
 40
0
 40
1
 40
1
 40
1
 40
1
 10
5.832252
 20
0.602156
 30
0.0
 10
5.837482
 20
0.602631
 30
0.0
 10
5.846515
 20
0.604533
 30
0.0
 10
5.852220
 20
0.605484
 30
0.0
  0
SPLINE
  5
288
100
AcDbEntity
  8
horse_unicorn_preggo
 62
7
100
AcDbSpline
 70
8
 71
3
 72
8
 73
4
 74
0
 40
0
 40
0
 40
0
 40
0
 40
1
 40
1
 40
1
 40
1
 10
5.852220
 20
0.605484
 30
0.0
 10
5.857925
 20
0.606910
 30
0.0
 10
5.882172
 20
0.624501
 30
0.0
 10
5.906419
 20
0.645420
 30
0.0
  0
SPLINE
  5
289
100
AcDbEntity
  8
horse_unicorn_preggo
 62
7
100
AcDbSpline
 70
8
 71
3
 72
8
 73
4
 74
0
 40
0
 40
0
 40
0
 40
0
 40
1
 40
1
 40
1
 40
1
 10
5.906419
 20
0.645420
 30
0.0
 10
5.947306
 20
0.680601
 30
0.0
 10
5.951585
 20
0.682978
 30
0.0
 10
5.977258
 20
0.685831
 30
0.0
  0
SPLINE
  5
28a
100
AcDbEntity
  8
horse_unicorn_preggo
 62
7
100
AcDbSpline
 70
8
 71
3
 72
8
 73
4
 74
0
 40
0
 40
0
 40
0
 40
0
 40
1
 40
1
 40
1
 40
1
 10
5.977258
 20
0.685831
 30
0.0
 10
5.999603
 20
0.688208
 30
0.0
 10
6.013390
 20
0.694389
 30
0.0
 10
6.051900
 20
0.718635
 30
0.0
  0
SPLINE
  5
28b
100
AcDbEntity
  8
horse_unicorn_preggo
 62
7
100
AcDbSpline
 70
8
 71
3
 72
8
 73
4
 74
0
 40
0
 40
0
 40
0
 40
0
 40
1
 40
1
 40
1
 40
1
 10
6.051900
 20
0.718635
 30
0.0
 10
6.081852
 20
0.737177
 30
0.0
 10
6.101344
 20
0.752391
 30
0.0
 10
6.104672
 20
0.759998
 30
0.0
  0
SPLINE
  5
28c
100
AcDbEntity
  8
horse_unicorn_preggo
 62
7
100
AcDbSpline
 70
8
 71
3
 72
8
 73
4
 74
0
 40
0
 40
0
 40
0
 40
0
 40
1
 40
1
 40
1
 40
1
 10
6.104672
 20
0.759998
 30
0.0
 10
6.107525
 20
0.766654
 30
0.0
 10
6.119886
 20
0.797556
 30
0.0
 10
6.132723
 20
0.828935
 30
0.0
  0
SPLINE
  5
28d
100
AcDbEntity
  8
horse_unicorn_preggo
 62
7
100
AcDbSpline
 70
8
 71
3
 72
8
 73
4
 74
0
 40
0
 40
0
 40
0
 40
0
 40
1
 40
1
 40
1
 40
1
 10
6.132723
 20
0.828935
 30
0.0
 10
6.158396
 20
0.891691
 30
0.0
 10
6.250629
 20
1.072353
 30
0.0
 10
6.275351
 20
1.108961
 30
0.0
  0
SPLINE
  5
28e
100
AcDbEntity
  8
horse_unicorn_preggo
 62
7
100
AcDbSpline
 70
8
 71
3
 72
8
 73
4
 74
0
 40
0
 40
0
 40
0
 40
0
 40
1
 40
1
 40
1
 40
1
 10
6.275351
 20
1.108961
 30
0.0
 10
6.283908
 20
1.121322
 30
0.0
 10
6.291040
 20
1.133684
 30
0.0
 10
6.291040
 20
1.136061
 30
0.0
  0
SPLINE
  5
28f
100
AcDbEntity
  8
horse_unicorn_preggo
 62
7
100
AcDbSpline
 70
8
 71
3
 72
8
 73
4
 74
0
 40
0
 40
0
 40
0
 40
0
 40
1
 40
1
 40
1
 40
1
 10
6.291040
 20
1.136061
 30
0.0
 10
6.291040
 20
1.138438
 30
0.0
 10
6.308155
 20
1.159357
 30
0.0
 10
6.329074
 20
1.183128
 30
0.0
  0
SPLINE
  5
290
100
AcDbEntity
  8
horse_unicorn_preggo
 62
7
100
AcDbSpline
 70
8
 71
3
 72
8
 73
4
 74
0
 40
0
 40
0
 40
0
 40
0
 40
1
 40
1
 40
1
 40
1
 10
6.329074
 20
1.183128
 30
0.0
 10
6.350468
 20
1.207375
 30
0.0
 10
6.368535
 20
1.233048
 30
0.0
 10
6.371387
 20
1.242081
 30
0.0
  0
SPLINE
  5
291
100
AcDbEntity
  8
horse_unicorn_preggo
 62
7
100
AcDbSpline
 70
8
 71
3
 72
8
 73
4
 74
0
 40
0
 40
0
 40
0
 40
0
 40
1
 40
1
 40
1
 40
1
 10
6.371387
 20
1.242081
 30
0.0
 10
6.373764
 20
1.252065
 30
0.0
 10
6.374240
 20
1.284394
 30
0.0
 10
6.371387
 20
1.324330
 30
0.0
  0
SPLINE
  5
292
100
AcDbEntity
  8
horse_unicorn_preggo
 62
7
100
AcDbSpline
 70
8
 71
3
 72
8
 73
4
 74
0
 40
0
 40
0
 40
0
 40
0
 40
1
 40
1
 40
1
 40
1
 10
6.371387
 20
1.324330
 30
0.0
 10
6.369485
 20
1.360462
 30
0.0
 10
6.369010
 20
1.410382
 30
0.0
 10
6.370436
 20
1.435580
 30
0.0
  0
SPLINE
  5
293
100
AcDbEntity
  8
horse_unicorn_preggo
 62
7
100
AcDbSpline
 70
8
 71
3
 72
8
 73
4
 74
0
 40
0
 40
0
 40
0
 40
0
 40
1
 40
1
 40
1
 40
1
 10
6.370436
 20
1.435580
 30
0.0
 10
6.372813
 20
1.478369
 30
0.0
 10
6.372338
 20
1.482647
 30
0.0
 10
6.361403
 20
1.502140
 30
0.0
  0
SPLINE
  5
294
100
AcDbEntity
  8
horse_unicorn_preggo
 62
7
100
AcDbSpline
 70
8
 71
3
 72
8
 73
4
 74
0
 40
0
 40
0
 40
0
 40
0
 40
1
 40
1
 40
1
 40
1
 10
6.361403
 20
1.502140
 30
0.0
 10
6.354747
 20
1.513550
 30
0.0
 10
6.348091
 20
1.528764
 30
0.0
 10
6.346189
 20
1.535895
 30
0.0
  0
SPLINE
  5
295
100
AcDbEntity
  8
horse_unicorn_preggo
 62
7
100
AcDbSpline
 70
8
 71
3
 72
8
 73
4
 74
0
 40
0
 40
0
 40
0
 40
0
 40
1
 40
1
 40
1
 40
1
 10
6.346189
 20
1.535895
 30
0.0
 10
6.344288
 20
1.543502
 30
0.0
 10
6.324320
 20
1.566323
 30
0.0
 10
6.293417
 20
1.595324
 30
0.0
  0
SPLINE
  5
296
100
AcDbEntity
  8
horse_unicorn_preggo
 62
7
100
AcDbSpline
 70
8
 71
3
 72
8
 73
4
 74
0
 40
0
 40
0
 40
0
 40
0
 40
1
 40
1
 40
1
 40
1
 10
6.293417
 20
1.595324
 30
0.0
 10
6.246350
 20
1.639063
 30
0.0
 10
6.236366
 20
1.652375
 30
0.0
 10
6.115132
 20
1.829709
 30
0.0
  0
LWPOLYLINE
  5
297
100
AcDbEntity
  8
horse_unicorn_preggo
 62
7
100
AcDbPolyline
 90
3
 70
0
 10
5.549373
 20
0.498988
 30
0.0
 10
5.555078
 20
0.460478
 30
0.0
 10
5.588833
 20
0.460478
 30
0.0
  0
SPLINE
  5
298
100
AcDbEntity
  8
horse_unicorn_preggo
 62
7
100
AcDbSpline
 70
8
 71
3
 72
8
 73
4
 74
0
 40
0
 40
0
 40
0
 40
0
 40
1
 40
1
 40
1
 40
1
 10
5.986766
 20
2.094998
 30
0.0
 10
5.986766
 20
2.181050
 30
0.0
 10
5.989619
 20
2.191510
 30
0.0
 10
6.026227
 20
2.239528
 30
0.0
  0
SPLINE
  5
299
100
AcDbEntity
  8
horse_unicorn_preggo
 62
7
100
AcDbSpline
 70
8
 71
3
 72
8
 73
4
 74
0
 40
0
 40
0
 40
0
 40
0
 40
1
 40
1
 40
1
 40
1
 10
6.026227
 20
2.239528
 30
0.0
 10
6.049998
 20
2.270906
 30
0.0
 10
6.080901
 20
2.329859
 30
0.0
 10
6.094213
 20
2.371221
 30
0.0
  0
SPLINE
  5
29a
100
AcDbEntity
  8
horse_unicorn_preggo
 62
7
100
AcDbSpline
 70
8
 71
3
 72
8
 73
4
 74
0
 40
0
 40
0
 40
0
 40
0
 40
1
 40
1
 40
1
 40
1
 10
6.094213
 20
2.371221
 30
0.0
 10
6.111804
 20
2.423518
 30
0.0
 10
6.119411
 20
2.501488
 30
0.0
 10
6.119886
 20
2.619870
 30
0.0
  0
SPLINE
  5
29b
100
AcDbEntity
  8
horse_unicorn_preggo
 62
7
100
AcDbSpline
 70
8
 71
3
 72
8
 73
4
 74
0
 40
0
 40
0
 40
0
 40
0
 40
1
 40
1
 40
1
 40
1
 10
6.119886
 20
2.619870
 30
0.0
 10
6.119886
 20
2.721611
 30
0.0
 10
6.119886
 20
2.723038
 30
0.0
 10
6.133673
 20
2.760121
 30
0.0
  0
SPLINE
  5
29c
100
AcDbEntity
  8
horse_unicorn_preggo
 62
7
100
AcDbSpline
 70
8
 71
3
 72
8
 73
4
 74
0
 40
0
 40
0
 40
0
 40
0
 40
1
 40
1
 40
1
 40
1
 10
6.133673
 20
2.760121
 30
0.0
 10
6.141280
 20
2.780564
 30
0.0
 10
6.158871
 20
2.816697
 30
0.0
 10
6.172658
 20
2.839993
 30
0.0
  0
SPLINE
  5
29d
100
AcDbEntity
  8
horse_unicorn_preggo
 62
7
100
AcDbSpline
 70
8
 71
3
 72
8
 73
4
 74
0
 40
0
 40
0
 40
0
 40
0
 40
1
 40
1
 40
1
 40
1
 10
6.172658
 20
2.839993
 30
0.0
 10
6.225906
 20
2.932226
 30
0.0
 10
6.282482
 20
3.072001
 30
0.0
 10
6.362354
 20
3.312092
 30
0.0
  0
SPLINE
  5
29e
100
AcDbEntity
  8
horse_unicorn_preggo
 62
7
100
AcDbSpline
 70
8
 71
3
 72
8
 73
4
 74
0
 40
0
 40
0
 40
0
 40
0
 40
1
 40
1
 40
1
 40
1
 10
6.362354
 20
3.312092
 30
0.0
 10
6.393257
 20
3.405276
 30
0.0
 10
6.420832
 20
3.488001
 30
0.0
 10
6.424160
 20
3.495607
 30
0.0
  0
LWPOLYLINE
  5
29f
100
AcDbEntity
  8
horse_unicorn_preggo
 62
7
100
AcDbPolyline
 90
3
 70
0
 10
6.115132
 20
1.829709
 30
0.0
 10
5.986766
 20
2.017503
 30
0.0
 10
5.986766
 20
2.094998
 30
0.0
  0
SPLINE
  5
2a0
100
AcDbEntity
  8
horse_unicorn_preggo
 62
7
100
AcDbSpline
 70
8
 71
3
 72
8
 73
4
 74
0
 40
0
 40
0
 40
0
 40
0
 40
1
 40
1
 40
1
 40
1
 10
6.452685
 20
3.471361
 30
0.0
 10
6.482637
 20
3.422392
 30
0.0
 10
6.524475
 20
3.383406
 30
0.0
 10
6.555378
 20
3.374849
 30
0.0
  0
SPLINE
  5
2a1
100
AcDbEntity
  8
horse_unicorn_preggo
 62
7
100
AcDbSpline
 70
8
 71
3
 72
8
 73
4
 74
0
 40
0
 40
0
 40
0
 40
0
 40
1
 40
1
 40
1
 40
1
 10
6.555378
 20
3.374849
 30
0.0
 10
6.581526
 20
3.367242
 30
0.0
 10
6.606248
 20
3.354405
 30
0.0
 10
6.623839
 20
3.339192
 30
0.0
  0
SPLINE
  5
2a2
100
AcDbEntity
  8
horse_unicorn_preggo
 62
7
100
AcDbSpline
 70
8
 71
3
 72
8
 73
4
 74
0
 40
0
 40
0
 40
0
 40
0
 40
1
 40
1
 40
1
 40
1
 10
6.623839
 20
3.339192
 30
0.0
 10
6.630495
 20
3.333011
 30
0.0
 10
6.656644
 20
3.315420
 30
0.0
 10
6.682317
 20
3.299256
 30
0.0
  0
SPLINE
  5
2a3
100
AcDbEntity
  8
horse_unicorn_preggo
 62
7
100
AcDbSpline
 70
8
 71
3
 72
8
 73
4
 74
0
 40
0
 40
0
 40
0
 40
0
 40
1
 40
1
 40
1
 40
1
 10
6.682317
 20
3.299256
 30
0.0
 10
6.707990
 20
3.283567
 30
0.0
 10
6.751729
 20
3.253615
 30
0.0
 10
6.779779
 20
3.232696
 30
0.0
  0
SPLINE
  5
2a4
100
AcDbEntity
  8
horse_unicorn_preggo
 62
7
100
AcDbSpline
 70
8
 71
3
 72
8
 73
4
 74
0
 40
0
 40
0
 40
0
 40
0
 40
1
 40
1
 40
1
 40
1
 10
6.779779
 20
3.232696
 30
0.0
 10
6.807830
 20
3.212253
 30
0.0
 10
6.852044
 20
3.181825
 30
0.0
 10
6.878193
 20
3.165661
 30
0.0
  0
SPLINE
  5
2a5
100
AcDbEntity
  8
horse_unicorn_preggo
 62
7
100
AcDbSpline
 70
8
 71
3
 72
8
 73
4
 74
0
 40
0
 40
0
 40
0
 40
0
 40
1
 40
1
 40
1
 40
1
 10
6.878193
 20
3.165661
 30
0.0
 10
6.933818
 20
3.130479
 30
0.0
 10
6.973278
 20
3.100052
 30
0.0
 10
7.007509
 20
3.064870
 30
0.0
  0
SPLINE
  5
2a6
100
AcDbEntity
  8
horse_unicorn_preggo
 62
7
100
AcDbSpline
 70
8
 71
3
 72
8
 73
4
 74
0
 40
0
 40
0
 40
0
 40
0
 40
1
 40
1
 40
1
 40
1
 10
7.007509
 20
3.064870
 30
0.0
 10
7.028428
 20
3.043476
 30
0.0
 10
7.033182
 20
3.035394
 30
0.0
 10
7.037461
 20
3.013524
 30
0.0
  0
SPLINE
  5
2a7
100
AcDbEntity
  8
horse_unicorn_preggo
 62
7
100
AcDbSpline
 70
8
 71
3
 72
8
 73
4
 74
0
 40
0
 40
0
 40
0
 40
0
 40
1
 40
1
 40
1
 40
1
 10
7.037461
 20
3.013524
 30
0.0
 10
7.043642
 20
2.980244
 30
0.0
 10
7.049822
 20
2.971686
 30
0.0
 10
7.082151
 20
2.952194
 30
0.0
  0
SPLINE
  5
2a8
100
AcDbEntity
  8
horse_unicorn_preggo
 62
7
100
AcDbSpline
 70
8
 71
3
 72
8
 73
4
 74
0
 40
0
 40
0
 40
0
 40
0
 40
1
 40
1
 40
1
 40
1
 10
7.082151
 20
2.952194
 30
0.0
 10
7.103070
 20
2.939833
 30
0.0
 10
7.116857
 20
2.935078
 30
0.0
 10
7.143481
 20
2.932226
 30
0.0
  0
SPLINE
  5
2a9
100
AcDbEntity
  8
horse_unicorn_preggo
 62
7
100
AcDbSpline
 70
8
 71
3
 72
8
 73
4
 74
0
 40
0
 40
0
 40
0
 40
0
 40
1
 40
1
 40
1
 40
1
 10
7.143481
 20
2.932226
 30
0.0
 10
7.174384
 20
2.929373
 30
0.0
 10
7.180089
 20
2.929849
 30
0.0
 10
7.200533
 20
2.940308
 30
0.0
  0
SPLINE
  5
2aa
100
AcDbEntity
  8
horse_unicorn_preggo
 62
7
100
AcDbSpline
 70
8
 71
3
 72
8
 73
4
 74
0
 40
0
 40
0
 40
0
 40
0
 40
1
 40
1
 40
1
 40
1
 10
7.200533
 20
2.940308
 30
0.0
 10
7.220501
 20
2.949817
 30
0.0
 10
7.230485
 20
2.951718
 30
0.0
 10
7.270896
 20
2.951718
 30
0.0
  0
LWPOLYLINE
  5
2ab
100
AcDbEntity
  8
horse_unicorn_preggo
 62
7
100
AcDbPolyline
 90
3
 70
0
 10
6.424160
 20
3.495607
 30
0.0
 10
6.429389
 20
3.509395
 30
0.0
 10
6.452685
 20
3.471361
 30
0.0
  0
SPLINE
  5
2ac
100
AcDbEntity
  8
horse_unicorn_preggo
 62
7
100
AcDbSpline
 70
8
 71
3
 72
8
 73
4
 74
0
 40
0
 40
0
 40
0
 40
0
 40
1
 40
1
 40
1
 40
1
 10
7.345063
 20
2.976441
 30
0.0
 10
7.360276
 20
2.990228
 30
0.0
 10
7.384999
 20
3.018754
 30
0.0
 10
7.400688
 20
3.040623
 30
0.0
  0
SPLINE
  5
2ad
100
AcDbEntity
  8
horse_unicorn_preggo
 62
7
100
AcDbSpline
 70
8
 71
3
 72
8
 73
4
 74
0
 40
0
 40
0
 40
0
 40
0
 40
1
 40
1
 40
1
 40
1
 10
7.400688
 20
3.040623
 30
0.0
 10
7.417328
 20
3.064395
 30
0.0
 10
7.436345
 20
3.084838
 30
0.0
 10
7.448706
 20
3.092445
 30
0.0
  0
SPLINE
  5
2ae
100
AcDbEntity
  8
horse_unicorn_preggo
 62
7
100
AcDbSpline
 70
8
 71
3
 72
8
 73
4
 74
0
 40
0
 40
0
 40
0
 40
0
 40
1
 40
1
 40
1
 40
1
 10
7.448706
 20
3.092445
 30
0.0
 10
7.471526
 20
3.107183
 30
0.0
 10
7.489117
 20
3.130479
 30
0.0
 10
7.489117
 20
3.146168
 30
0.0
  0
SPLINE
  5
2af
100
AcDbEntity
  8
horse_unicorn_preggo
 62
7
100
AcDbSpline
 70
8
 71
3
 72
8
 73
4
 74
0
 40
0
 40
0
 40
0
 40
0
 40
1
 40
1
 40
1
 40
1
 10
7.489117
 20
3.146168
 30
0.0
 10
7.489117
 20
3.156152
 30
0.0
 10
7.449181
 20
3.261222
 30
0.0
 10
7.433968
 20
3.290223
 30
0.0
  0
SPLINE
  5
2b0
100
AcDbEntity
  8
horse_unicorn_preggo
 62
7
100
AcDbSpline
 70
8
 71
3
 72
8
 73
4
 74
0
 40
0
 40
0
 40
0
 40
0
 40
1
 40
1
 40
1
 40
1
 10
7.433968
 20
3.290223
 30
0.0
 10
7.430640
 20
3.296879
 30
0.0
 10
7.374539
 20
3.381505
 30
0.0
 10
7.309406
 20
3.478017
 30
0.0
  0
SPLINE
  5
2b1
100
AcDbEntity
  8
horse_unicorn_preggo
 62
7
100
AcDbSpline
 70
8
 71
3
 72
8
 73
4
 74
0
 40
0
 40
0
 40
0
 40
0
 40
1
 40
1
 40
1
 40
1
 10
7.309406
 20
3.478017
 30
0.0
 10
7.244272
 20
3.574053
 30
0.0
 10
7.177712
 20
3.678647
 30
0.0
 10
7.161072
 20
3.710025
 30
0.0
  0
SPLINE
  5
2b2
100
AcDbEntity
  8
horse_unicorn_preggo
 62
7
100
AcDbSpline
 70
8
 71
3
 72
8
 73
4
 74
0
 40
0
 40
0
 40
0
 40
0
 40
1
 40
1
 40
1
 40
1
 10
7.161072
 20
3.710025
 30
0.0
 10
7.144908
 20
3.741403
 30
0.0
 10
7.121612
 20
3.783716
 30
0.0
 10
7.110201
 20
3.803684
 30
0.0
  0
SPLINE
  5
2b3
100
AcDbEntity
  8
horse_unicorn_preggo
 62
7
100
AcDbSpline
 70
8
 71
3
 72
8
 73
4
 74
0
 40
0
 40
0
 40
0
 40
0
 40
1
 40
1
 40
1
 40
1
 10
7.110201
 20
3.803684
 30
0.0
 10
7.094037
 20
3.831735
 30
0.0
 10
7.087381
 20
3.850276
 30
0.0
 10
7.082151
 20
3.878802
 30
0.0
  0
LWPOLYLINE
  5
2b4
100
AcDbEntity
  8
horse_unicorn_preggo
 62
7
100
AcDbPolyline
 90
3
 70
0
 10
7.270896
 20
2.951718
 30
0.0
 10
7.317963
 20
2.951718
 30
0.0
 10
7.345063
 20
2.976441
 30
0.0
  0
SPLINE
  5
2b5
100
AcDbEntity
  8
horse_unicorn_preggo
 62
7
100
AcDbSpline
 70
8
 71
3
 72
8
 73
4
 74
0
 40
0
 40
0
 40
0
 40
0
 40
1
 40
1
 40
1
 40
1
 10
7.022247
 20
3.977691
 30
0.0
 10
6.930965
 20
4.080859
 30
0.0
 10
6.858700
 20
4.161206
 30
0.0
 10
6.847765
 20
4.170714
 30
0.0
  0
SPLINE
  5
2b6
100
AcDbEntity
  8
horse_unicorn_preggo
 62
7
100
AcDbSpline
 70
8
 71
3
 72
8
 73
4
 74
0
 40
0
 40
0
 40
0
 40
0
 40
1
 40
1
 40
1
 40
1
 10
6.847765
 20
4.170714
 30
0.0
 10
6.842536
 20
4.175944
 30
0.0
 10
6.837781
 20
4.184502
 30
0.0
 10
6.837781
 20
4.189732
 30
0.0
  0
SPLINE
  5
2b7
100
AcDbEntity
  8
horse_unicorn_preggo
 62
7
100
AcDbSpline
 70
8
 71
3
 72
8
 73
4
 74
0
 40
0
 40
0
 40
0
 40
0
 40
1
 40
1
 40
1
 40
1
 10
6.837781
 20
4.189732
 30
0.0
 10
6.838257
 20
4.205896
 30
0.0
 10
6.854897
 20
4.238225
 30
0.0
 10
6.877242
 20
4.265800
 30
0.0
  0
SPLINE
  5
2b8
100
AcDbEntity
  8
horse_unicorn_preggo
 62
7
100
AcDbSpline
 70
8
 71
3
 72
8
 73
4
 74
0
 40
0
 40
0
 40
0
 40
0
 40
1
 40
1
 40
1
 40
1
 10
6.877242
 20
4.265800
 30
0.0
 10
6.895784
 20
4.288620
 30
0.0
 10
6.899587
 20
4.297654
 30
0.0
 10
6.910997
 20
4.347573
 30
0.0
  0
SPLINE
  5
2b9
100
AcDbEntity
  8
horse_unicorn_preggo
 62
7
100
AcDbSpline
 70
8
 71
3
 72
8
 73
4
 74
0
 40
0
 40
0
 40
0
 40
0
 40
1
 40
1
 40
1
 40
1
 10
6.910997
 20
4.347573
 30
0.0
 10
6.918604
 20
4.378001
 30
0.0
 10
6.929539
 20
4.418412
 30
0.0
 10
6.935720
 20
4.436478
 30
0.0
  0
SPLINE
  5
2ba
100
AcDbEntity
  8
horse_unicorn_preggo
 62
7
100
AcDbSpline
 70
8
 71
3
 72
8
 73
4
 74
0
 40
0
 40
0
 40
0
 40
0
 40
1
 40
1
 40
1
 40
1
 10
6.935720
 20
4.436478
 30
0.0
 10
6.947130
 20
4.469758
 30
0.0
 10
7.705652
 20
5.278390
 30
0.0
 10
7.690913
 20
5.278390
 30
0.0
  0
SPLINE
  5
2bb
100
AcDbEntity
  8
horse_unicorn_preggo
 62
7
100
AcDbSpline
 70
8
 71
3
 72
8
 73
4
 74
0
 40
0
 40
0
 40
0
 40
0
 40
1
 40
1
 40
1
 40
1
 10
7.690913
 20
5.278390
 30
0.0
 10
7.688061
 20
5.278390
 30
0.0
 10
6.889603
 20
4.452643
 30
0.0
 10
6.845864
 20
4.416035
 30
0.0
  0
SPLINE
  5
2bc
100
AcDbEntity
  8
horse_unicorn_preggo
 62
7
100
AcDbSpline
 70
8
 71
3
 72
8
 73
4
 74
0
 40
0
 40
0
 40
0
 40
0
 40
1
 40
1
 40
1
 40
1
 10
6.845864
 20
4.416035
 30
0.0
 10
6.802124
 20
4.379427
 30
0.0
 10
6.761238
 20
4.348524
 30
0.0
 10
6.755057
 20
4.346623
 30
0.0
  0
SPLINE
  5
2bd
100
AcDbEntity
  8
horse_unicorn_preggo
 62
7
100
AcDbSpline
 70
8
 71
3
 72
8
 73
4
 74
0
 40
0
 40
0
 40
0
 40
0
 40
1
 40
1
 40
1
 40
1
 10
6.755057
 20
4.346623
 30
0.0
 10
6.742696
 20
4.343770
 30
0.0
 10
6.678989
 20
4.368968
 30
0.0
 10
6.604822
 20
4.407002
 30
0.0
  0
SPLINE
  5
2be
100
AcDbEntity
  8
horse_unicorn_preggo
 62
7
100
AcDbSpline
 70
8
 71
3
 72
8
 73
4
 74
0
 40
0
 40
0
 40
0
 40
0
 40
1
 40
1
 40
1
 40
1
 10
6.604822
 20
4.407002
 30
0.0
 10
6.571067
 20
4.424117
 30
0.0
 10
6.545394
 20
4.433150
 30
0.0
 10
6.505458
 20
4.441708
 30
0.0
  0
SPLINE
  5
2bf
100
AcDbEntity
  8
horse_unicorn_preggo
 62
7
100
AcDbSpline
 70
8
 71
3
 72
8
 73
4
 74
0
 40
0
 40
0
 40
0
 40
0
 40
1
 40
1
 40
1
 40
1
 10
6.505458
 20
4.441708
 30
0.0
 10
6.455538
 20
4.452643
 30
0.0
 10
6.449833
 20
4.455020
 30
0.0
 10
6.431766
 20
4.472611
 30
0.0
  0
SPLINE
  5
2c0
100
AcDbEntity
  8
horse_unicorn_preggo
 62
7
100
AcDbSpline
 70
8
 71
3
 72
8
 73
4
 74
0
 40
0
 40
0
 40
0
 40
0
 40
1
 40
1
 40
1
 40
1
 10
6.431766
 20
4.472611
 30
0.0
 10
6.419405
 20
4.484972
 30
0.0
 10
6.403241
 20
4.494481
 30
0.0
 10
6.388502
 20
4.499235
 30
0.0
  0
SPLINE
  5
2c1
100
AcDbEntity
  8
horse_unicorn_preggo
 62
7
100
AcDbSpline
 70
8
 71
3
 72
8
 73
4
 74
0
 40
0
 40
0
 40
0
 40
0
 40
1
 40
1
 40
1
 40
1
 10
6.388502
 20
4.499235
 30
0.0
 10
6.352370
 20
4.510170
 30
0.0
 10
6.343337
 20
4.507793
 30
0.0
 10
6.369961
 20
4.494481
 30
0.0
  0
SPLINE
  5
2c2
100
AcDbEntity
  8
horse_unicorn_preggo
 62
7
100
AcDbSpline
 70
8
 71
3
 72
8
 73
4
 74
0
 40
0
 40
0
 40
0
 40
0
 40
1
 40
1
 40
1
 40
1
 10
6.369961
 20
4.494481
 30
0.0
 10
6.387076
 20
4.485923
 30
0.0
 10
6.396109
 20
4.477841
 30
0.0
 10
6.402290
 20
4.465479
 30
0.0
  0
SPLINE
  5
2c3
100
AcDbEntity
  8
horse_unicorn_preggo
 62
7
100
AcDbSpline
 70
8
 71
3
 72
8
 73
4
 74
0
 40
0
 40
0
 40
0
 40
0
 40
1
 40
1
 40
1
 40
1
 10
6.402290
 20
4.465479
 30
0.0
 10
6.406569
 20
4.455971
 30
0.0
 10
6.408946
 20
4.446938
 30
0.0
 10
6.407995
 20
4.445512
 30
0.0
  0
SPLINE
  5
2c4
100
AcDbEntity
  8
horse_unicorn_preggo
 62
7
100
AcDbSpline
 70
8
 71
3
 72
8
 73
4
 74
0
 40
0
 40
0
 40
0
 40
0
 40
1
 40
1
 40
1
 40
1
 10
6.407995
 20
4.445512
 30
0.0
 10
6.402290
 20
4.439806
 30
0.0
 10
6.327172
 20
4.460725
 30
0.0
 10
6.308155
 20
4.473086
 30
0.0
  0
SPLINE
  5
2c5
100
AcDbEntity
  8
horse_unicorn_preggo
 62
7
100
AcDbSpline
 70
8
 71
3
 72
8
 73
4
 74
0
 40
0
 40
0
 40
0
 40
0
 40
1
 40
1
 40
1
 40
1
 10
6.308155
 20
4.473086
 30
0.0
 10
6.224005
 20
4.529662
 30
0.0
 10
6.144608
 20
4.554860
 30
0.0
 10
6.085180
 20
4.544400
 30
0.0
  0
LWPOLYLINE
  5
2c6
100
AcDbEntity
  8
horse_unicorn_preggo
 62
7
100
AcDbPolyline
 90
3
 70
0
 10
7.082151
 20
3.878802
 30
0.0
 10
7.075495
 20
3.917312
 30
0.0
 10
7.022247
 20
3.977691
 30
0.0
  0
SPLINE
  5
2c7
100
AcDbEntity
  8
horse_unicorn_preggo
 62
7
100
AcDbSpline
 70
8
 71
3
 72
8
 73
4
 74
0
 40
0
 40
0
 40
0
 40
0
 40
1
 40
1
 40
1
 40
1
 10
2.861781
 20
1.662359
 30
0.0
 10
2.869864
 20
1.619095
 30
0.0
 10
2.873667
 20
1.589143
 30
0.0
 10
2.870814
 20
1.590569
 30
0.0
  0
SPLINE
  5
2c8
100
AcDbEntity
  8
horse_unicorn_preggo
 62
7
100
AcDbSpline
 70
8
 71
3
 72
8
 73
4
 74
0
 40
0
 40
0
 40
0
 40
0
 40
1
 40
1
 40
1
 40
1
 10
2.870814
 20
1.590569
 30
0.0
 10
2.867962
 20
1.592471
 30
0.0
 10
2.845617
 20
1.609586
 30
0.0
 10
2.821370
 20
1.629079
 30
0.0
  0
SPLINE
  5
2c9
100
AcDbEntity
  8
horse_unicorn_preggo
 62
7
100
AcDbSpline
 70
8
 71
3
 72
8
 73
4
 74
0
 40
0
 40
0
 40
0
 40
0
 40
1
 40
1
 40
1
 40
1
 10
2.821370
 20
1.629079
 30
0.0
 10
2.777631
 20
1.664261
 30
0.0
 10
2.777631
 20
1.664261
 30
0.0
 10
2.785713
 20
1.675195
 30
0.0
  0
SPLINE
  5
2ca
100
AcDbEntity
  8
horse_unicorn_preggo
 62
7
100
AcDbSpline
 70
8
 71
3
 72
8
 73
4
 74
0
 40
0
 40
0
 40
0
 40
0
 40
1
 40
1
 40
1
 40
1
 10
2.785713
 20
1.675195
 30
0.0
 10
2.812812
 20
1.709902
 30
0.0
 10
2.842289
 20
1.742706
 30
0.0
 10
2.844666
 20
1.739854
 30
0.0
  0
SPLINE
  5
2cb
100
AcDbEntity
  8
horse_unicorn_preggo
 62
7
100
AcDbSpline
 70
8
 71
3
 72
8
 73
4
 74
0
 40
0
 40
0
 40
0
 40
0
 40
1
 40
1
 40
1
 40
1
 10
2.844666
 20
1.739854
 30
0.0
 10
2.846568
 20
1.738427
 30
0.0
 10
2.854174
 20
1.703246
 30
0.0
 10
2.861781
 20
1.662359
 30
0.0
  0
LWPOLYLINE
  5
2cc
100
AcDbEntity
  8
horse_unicorn_preggo
 62
7
100
AcDbPolyline
 90
1
 70
1
 10
6.085180
 20
4.544400
 30
0.0
  0
LWPOLYLINE
  5
2cd
100
AcDbEntity
  8
horse_unicorn_preggo
 62
7
100
AcDbPolyline
 90
1
 70
1
 10
2.861781
 20
1.662359
 30
0.0
  0
ENDSEC
  0
SECTION
  2
OBJECTS
  0
DICTIONARY
  5
C
330
0
100
AcDbDictionary
  3
ACAD_GROUP
350
D
  3
ACAD_MLINESTYLE
350
17
  0
DICTIONARY
  5
D
330
C
100
AcDbDictionary
  0
DICTIONARY
  5
1A
330
C
100
AcDbDictionary
  0
DICTIONARY
  5
17
330
C
100
AcDbDictionary
  3
STANDARD
350
18
  0
DICTIONARY
  5
19
330
C
100
AcDbDictionary
  0
ENDSEC
  0
EOF
