  0
SECTION
  2
HEADER
  9
$ACADVER
  1
AC1032
  9
$ACADMAINTVER
 90
      229
  9
$DWGCODEPAGE
  3
ANSI_1252
  9
$LASTSAVEDBY
  1
mholbrook
  9
$REQUIREDVERSIONS
160
                 0
  9
$INSBASE
 10
0.0
 20
0.0
 30
0.0
  9
$EXTMIN
 10
-6.037051685109694
 20
4.452428887275836
 30
0.0
  9
$EXTMAX
 10
13.9629483148903
 20
6.952428887275839
 30
0.0
  9
$LIMMIN
 10
0.0
 20
0.0
  9
$LIMMAX
 10
12.0
 20
9.0
  9
$ORTHOMODE
 70
     0
  9
$REGENMODE
 70
     1
  9
$FILLMODE
 70
     1
  9
$QTEXTMODE
 70
     0
  9
$MIRRTEXT
 70
     0
  9
$LTSCALE
 40
1.0
  9
$ATTMODE
 70
     1
  9
$TEXTSIZE
 40
0.2
  9
$TRACEWID
 40
0.05
  9
$TEXTSTYLE
  7
Standard
  9
$CLAYER
  8
Neck Trace
  9
$CELTYPE
  6
ByLayer
  9
$CECOLOR
 62
   256
  9
$CELTSCALE
 40
1.0
  9
$DISPSILH
 70
     0
  9
$DIMSCALE
 40
1.0
  9
$DIMASZ
 40
0.18
  9
$DIMEXO
 40
0.0625
  9
$DIMDLI
 40
0.38
  9
$DIMRND
 40
0.0
  9
$DIMDLE
 40
0.0
  9
$DIMEXE
 40
0.18
  9
$DIMTP
 40
0.0
  9
$DIMTM
 40
0.0
  9
$DIMTXT
 40
0.18
  9
$DIMCEN
 40
0.09
  9
$DIMTSZ
 40
0.0
  9
$DIMTOL
 70
     0
  9
$DIMLIM
 70
     0
  9
$DIMTIH
 70
     1
  9
$DIMTOH
 70
     1
  9
$DIMSE1
 70
     0
  9
$DIMSE2
 70
     0
  9
$DIMTAD
 70
     0
  9
$DIMZIN
 70
     0
  9
$DIMBLK
  1

  9
$DIMASO
 70
     1
  9
$DIMSHO
 70
     1
  9
$DIMPOST
  1

  9
$DIMAPOST
  1

  9
$DIMALT
 70
     0
  9
$DIMALTD
 70
     2
  9
$DIMALTF
 40
25.4
  9
$DIMLFAC
 40
1.0
  9
$DIMTOFL
 70
     0
  9
$DIMTVP
 40
0.0
  9
$DIMTIX
 70
     0
  9
$DIMSOXD
 70
     0
  9
$DIMSAH
 70
     0
  9
$DIMBLK1
  1

  9
$DIMBLK2
  1

  9
$DIMSTYLE
  2
Standard
  9
$DIMCLRD
 70
     0
  9
$DIMCLRE
 70
     0
  9
$DIMCLRT
 70
     0
  9
$DIMTFAC
 40
1.0
  9
$DIMGAP
 40
0.09
  9
$DIMJUST
 70
     0
  9
$DIMSD1
 70
     0
  9
$DIMSD2
 70
     0
  9
$DIMTOLJ
 70
     1
  9
$DIMTZIN
 70
     0
  9
$DIMALTZ
 70
     0
  9
$DIMALTTZ
 70
     0
  9
$DIMUPT
 70
     0
  9
$DIMDEC
 70
     4
  9
$DIMTDEC
 70
     4
  9
$DIMALTU
 70
     2
  9
$DIMALTTD
 70
     2
  9
$DIMTXSTY
  7
Standard
  9
$DIMAUNIT
 70
     0
  9
$DIMADEC
 70
     0
  9
$DIMALTRND
 40
0.0
  9
$DIMAZIN
 70
     0
  9
$DIMDSEP
 70
    46
  9
$DIMATFIT
 70
     3
  9
$DIMFRAC
 70
     0
  9
$DIMLDRBLK
  1

  9
$DIMLUNIT
 70
     2
  9
$DIMLWD
 70
    -2
  9
$DIMLWE
 70
    -2
  9
$DIMTMOVE
 70
     0
  9
$DIMFXL
 40
1.0
  9
$DIMFXLON
 70
     0
  9
$DIMJOGANG
 40
0.7853981633974483
  9
$DIMTFILL
 70
     0
  9
$DIMTFILLCLR
 70
     0
  9
$DIMARCSYM
 70
     0
  9
$DIMLTYPE
  6

  9
$DIMLTEX1
  6

  9
$DIMLTEX2
  6

  9
$DIMTXTDIRECTION
 70
     0
  9
$LUNITS
 70
     2
  9
$LUPREC
 70
     4
  9
$SKETCHINC
 40
0.1
  9
$FILLETRAD
 40
0.0
  9
$AUNITS
 70
     0
  9
$AUPREC
 70
     0
  9
$MENU
  1
.
  9
$ELEVATION
 40
0.0
  9
$PELEVATION
 40
0.0
  9
$THICKNESS
 40
0.0
  9
$LIMCHECK
 70
     0
  9
$CHAMFERA
 40
0.0
  9
$CHAMFERB
 40
0.0
  9
$CHAMFERC
 40
0.0
  9
$CHAMFERD
 40
0.0
  9
$SKPOLY
 70
     0
  9
$TDCREATE
 40
2460096.530231481
  9
$TDUCREATE
 40
2460096.821898148
  9
$TDUPDATE
 40
2460096.708553241
  9
$TDUUPDATE
 40
2460097.000219908
  9
$TDINDWG
 40
0.1782523148
  9
$TDUSRTIMER
 40
0.1782523148
  9
$USRTIMER
 70
     1
  9
$ANGBASE
 50
0.0
  9
$ANGDIR
 70
     0
  9
$PDMODE
 70
     0
  9
$PDSIZE
 40
0.0
  9
$PLINEWID
 40
0.0
  9
$SPLFRAME
 70
     0
  9
$SPLINETYPE
 70
     6
  9
$SPLINESEGS
 70
     8
  9
$HANDSEED
  5
4DD
  9
$SURFTAB1
 70
     6
  9
$SURFTAB2
 70
     6
  9
$SURFTYPE
 70
     6
  9
$SURFU
 70
     6
  9
$SURFV
 70
     6
  9
$UCSBASE
  2

  9
$UCSNAME
  2

  9
$UCSORG
 10
0.0
 20
0.0
 30
0.0
  9
$UCSXDIR
 10
1.0
 20
0.0
 30
0.0
  9
$UCSYDIR
 10
0.0
 20
1.0
 30
0.0
  9
$UCSORTHOREF
  2

  9
$UCSORTHOVIEW
 70
     0
  9
$UCSORGTOP
 10
0.0
 20
0.0
 30
0.0
  9
$UCSORGBOTTOM
 10
0.0
 20
0.0
 30
0.0
  9
$UCSORGLEFT
 10
0.0
 20
0.0
 30
0.0
  9
$UCSORGRIGHT
 10
0.0
 20
0.0
 30
0.0
  9
$UCSORGFRONT
 10
0.0
 20
0.0
 30
0.0
  9
$UCSORGBACK
 10
0.0
 20
0.0
 30
0.0
  9
$PUCSBASE
  2

  9
$PUCSNAME
  2

  9
$PUCSORG
 10
0.0
 20
0.0
 30
0.0
  9
$PUCSXDIR
 10
1.0
 20
0.0
 30
0.0
  9
$PUCSYDIR
 10
0.0
 20
1.0
 30
0.0
  9
$PUCSORTHOREF
  2

  9
$PUCSORTHOVIEW
 70
     0
  9
$PUCSORGTOP
 10
0.0
 20
0.0
 30
0.0
  9
$PUCSORGBOTTOM
 10
0.0
 20
0.0
 30
0.0
  9
$PUCSORGLEFT
 10
0.0
 20
0.0
 30
0.0
  9
$PUCSORGRIGHT
 10
0.0
 20
0.0
 30
0.0
  9
$PUCSORGFRONT
 10
0.0
 20
0.0
 30
0.0
  9
$PUCSORGBACK
 10
0.0
 20
0.0
 30
0.0
  9
$USERI1
 70
     0
  9
$USERI2
 70
     0
  9
$USERI3
 70
     0
  9
$USERI4
 70
     0
  9
$USERI5
 70
     0
  9
$USERR1
 40
0.0
  9
$USERR2
 40
0.0
  9
$USERR3
 40
0.0
  9
$USERR4
 40
0.0
  9
$USERR5
 40
0.0
  9
$WORLDVIEW
 70
     1
  9
$SHADEDGE
 70
     3
  9
$SHADEDIF
 70
    70
  9
$TILEMODE
 70
     1
  9
$MAXACTVP
 70
    64
  9
$PINSBASE
 10
0.0
 20
0.0
 30
0.0
  9
$PLIMCHECK
 70
     0
  9
$PEXTMIN
 10
1.000000000000000E+20
 20
1.000000000000000E+20
 30
1.000000000000000E+20
  9
$PEXTMAX
 10
-1.000000000000000E+20
 20
-1.000000000000000E+20
 30
-1.000000000000000E+20
  9
$PLIMMIN
 10
0.0
 20
0.0
  9
$PLIMMAX
 10
12.0
 20
9.0
  9
$UNITMODE
 70
     0
  9
$VISRETAIN
 70
     1
  9
$PLINEGEN
 70
     0
  9
$PSLTSCALE
 70
     1
  9
$TREEDEPTH
 70
  3020
  9
$CMLSTYLE
  2
Standard
  9
$CMLJUST
 70
     0
  9
$CMLSCALE
 40
1.0
  9
$PROXYGRAPHICS
 70
     1
  9
$MEASUREMENT
 70
     0
  9
$CELWEIGHT
370
    -1
  9
$ENDCAPS
280
     0
  9
$JOINSTYLE
280
     0
  9
$LWDISPLAY
290
     1
  9
$INSUNITS
 70
     1
  9
$HYPERLINKBASE
  1

  9
$STYLESHEET
  1

  9
$XEDIT
290
     1
  9
$CEPSNTYPE
380
     0
  9
$PSTYLEMODE
290
     1
  9
$FINGERPRINTGUID
  2
{FA43AE10-39DE-ED41-A7E5-8F7D31F70B70}
  9
$VERSIONGUID
  2
{E3678BC9-ECB6-2E48-A875-73DC5AFCEE18}
  9
$EXTNAMES
290
     1
  9
$PSVPSCALE
 40
0.0
  9
$OLESTARTUP
290
     0
  9
$SORTENTS
280
   127
  9
$INDEXCTL
280
     0
  9
$HIDETEXT
280
     1
  9
$XCLIPFRAME
280
     2
  9
$HALOGAP
280
     0
  9
$OBSCOLOR
 70
   257
  9
$OBSLTYPE
280
     0
  9
$INTERSECTIONDISPLAY
280
     0
  9
$INTERSECTIONCOLOR
 70
   257
  9
$DIMASSOC
280
     2
  9
$PROJECTNAME
  1

  9
$CAMERADISPLAY
290
     0
  9
$LENSLENGTH
 40
50.0
  9
$CAMERAHEIGHT
 40
0.0
  9
$STEPSPERSEC
 40
2.0
  9
$STEPSIZE
 40
6.0
  9
$3DDWFPREC
 40
2.0
  9
$PSOLWIDTH
 40
0.25
  9
$PSOLHEIGHT
 40
4.0
  9
$LOFTANG1
 40
1.570796326794896
  9
$LOFTANG2
 40
1.570796326794896
  9
$LOFTMAG1
 40
0.0
  9
$LOFTMAG2
 40
0.0
  9
$LOFTPARAM
 70
     7
  9
$LOFTNORMALS
280
     1
  9
$LATITUDE
 40
37.795
  9
$LONGITUDE
 40
-122.394
  9
$NORTHDIRECTION
 40
0.0
  9
$TIMEZONE
 70
 -8000
  9
$LIGHTGLYPHDISPLAY
280
     1
  9
$TILEMODELIGHTSYNCH
280
     1
  9
$CMATERIAL
347
11
  9
$SOLIDHIST
280
     0
  9
$SHOWHIST
280
     1
  9
$DWFFRAME
280
     2
  9
$DGNFRAME
280
     0
  9
$REALWORLDSCALE
290
     1
  9
$INTERFERECOLOR
 62
     1
  9
$INTERFEREOBJVS
345
33
  9
$INTERFEREVPVS
346
30
  9
$CSHADOW
280
     0
  9
$SHADOWPLANELOCATION
 40
0.0
  0
ENDSEC
  0
SECTION
  2
CLASSES
  0
CLASS
  1
ACDBDICTIONARYWDFLT
  2
AcDbDictionaryWithDefault
  3
ObjectDBX Classes
 90
        0
 91
        1
280
     0
281
     0
  0
CLASS
  1
MATERIAL
  2
AcDbMaterial
  3
ObjectDBX Classes
 90
     1153
 91
        3
280
     0
281
     0
  0
CLASS
  1
VISUALSTYLE
  2
AcDbVisualStyle
  3
ObjectDBX Classes
 90
     4095
 91
       24
280
     0
281
     0
  0
CLASS
  1
SCALE
  2
AcDbScale
  3
ObjectDBX Classes
 90
     1153
 91
       17
280
     0
281
     0
  0
CLASS
  1
TABLESTYLE
  2
AcDbTableStyle
  3
ObjectDBX Classes
 90
     4095
 91
        1
280
     0
281
     0
  0
CLASS
  1
MLEADERSTYLE
  2
AcDbMLeaderStyle
  3
ACDB_MLEADERSTYLE_CLASS
 90
     4095
 91
        1
280
     0
281
     0
  0
CLASS
  1
ACDBSECTIONVIEWSTYLE
  2
AcDbSectionViewStyle
  3
ObjectDBX Classes
 90
     1025
 91
        1
280
     0
281
     0
  0
CLASS
  1
ACDBDETAILVIEWSTYLE
  2
AcDbDetailViewStyle
  3
ObjectDBX Classes
 90
     1025
 91
        1
280
     0
281
     0
  0
CLASS
  1
DICTIONARYVAR
  2
AcDbDictionaryVar
  3
ObjectDBX Classes
 90
        0
 91
        5
280
     0
281
     0
  0
CLASS
  1
CELLSTYLEMAP
  2
AcDbCellStyleMap
  3
ObjectDBX Classes
 90
     1152
 91
        4
280
     0
281
     0
  0
CLASS
  1
EXACXREFPANELOBJECT
  2
ExAcXREFPanelObject
  3
EXAC_ESW
 90
     1025
 91
        1
280
     0
281
     0
  0
CLASS
  1
NPOCOLLECTION
  2
AcDbImpNonPersistentObjectsCollection
  3
ObjectDBX Classes
 90
     1153
 91
        1
280
     0
281
     0
  0
CLASS
  1
SORTENTSTABLE
  2
AcDbSortentsTable
  3
ObjectDBX Classes
 90
        0
 91
        1
280
     0
281
     0
  0
ENDSEC
  0
SECTION
  2
TABLES
  0
TABLE
  2
VPORT
  5
8
330
0
100
AcDbSymbolTable
 70
     1
  0
VPORT
  5
57
330
8
100
AcDbSymbolTableRecord
100
AcDbViewportTableRecord
  2
*Active
 70
     0
 10
0.0
 20
0.0
 11
1.0
 21
1.0
 12
-2.395016251355432
 22
10.21398771619351
 13
0.0
 23
0.0
 14
1.0
 24
1.0
 15
0.0
 25
0.0
 16
0.0
 26
0.0
 36
1.0
 17
6.370866299561321
 27
-2.881501182033109
 37
0.0
 40
17.15313748592598
 41
1.465853658536585
 42
50.0
 43
0.0
 44
0.0
 50
0.0
 51
0.0
 71
     0
 72
   100
 73
     1
 74
     1
 75
     0
 76
     0
 77
     0
 78
     0
281
     0
 65
     1
110
0.0
120
0.0
130
0.0
111
1.0
121
0.0
131
0.0
112
0.0
122
1.0
132
0.0
 79
     0
146
0.0
348
2F
 60
     3
 61
     5
292
     1
282
     1
141
0.0
142
0.0
 63
   250
421
  3355443
1001
ACAD_NAV_VCDISPLAY
1070
     3
  0
ENDTAB
  0
TABLE
  2
LTYPE
  5
5
330
0
100
AcDbSymbolTable
 70
     2
  0
LTYPE
  5
5B
330
5
100
AcDbSymbolTableRecord
100
AcDbLinetypeTableRecord
  2
ByBlock
 70
     0
  3

 72
    65
 73
     0
 40
0.0
  0
LTYPE
  5
5C
330
5
100
AcDbSymbolTableRecord
100
AcDbLinetypeTableRecord
  2
ByLayer
 70
     0
  3

 72
    65
 73
     0
 40
0.0
  0
LTYPE
  5
5D
330
5
100
AcDbSymbolTableRecord
100
AcDbLinetypeTableRecord
  2
Continuous
 70
     0
  3
Solid line
 72
    65
 73
     0
 40
0.0
  0
ENDTAB
  0
TABLE
  2
LAYER
  5
2
102
{ACAD_XDICTIONARY
360
4CF
102
}
330
0
100
AcDbSymbolTable
 70
     3
  0
LAYER
  5
54
330
2
100
AcDbSymbolTableRecord
100
AcDbLayerTableRecord
  2
0
 70
     0
 62
     7
  6
Continuous
370
    -3
390
F
347
21
348
0
  0
LAYER
  5
78
330
2
100
AcDbSymbolTableRecord
100
AcDbLayerTableRecord
  2
Neck Original
 70
     0
 62
    -7
  6
Continuous
370
     0
390
F
347
21
348
0
  0
LAYER
  5
1E8
330
2
100
AcDbSymbolTableRecord
100
AcDbLayerTableRecord
  2
Neck Trace
 70
     0
 62
     7
  6
Continuous
370
    -3
390
F
347
21
348
0
1001
AcAecLayerStandard
1000

1000

1001
AcCmTransparency
1071
        0
  0
ENDTAB
  0
TABLE
  2
STYLE
  5
3
330
0
100
AcDbSymbolTable
 70
     2
  0
STYLE
  5
55
330
3
100
AcDbSymbolTableRecord
100
AcDbTextStyleTableRecord
  2
Standard
 70
     0
 40
0.0
 41
1.0
 50
0.0
 71
     0
 42
0.2
  3
txt
  4

  0
STYLE
  5
5A
330
3
100
AcDbSymbolTableRecord
100
AcDbTextStyleTableRecord
  2
Annotative
 70
     0
 40
0.0
 41
1.0
 50
0.0
 71
     0
 42
0.2
  3
txt
  4

1001
AcadAnnotative
1000
AnnotativeData
1002
{
1070
     1
1070
     1
1002
}
  0
ENDTAB
  0
TABLE
  2
VIEW
  5
6
330
0
100
AcDbSymbolTable
 70
     1
  0
ENDTAB
  0
TABLE
  2
UCS
  5
7
330
0
100
AcDbSymbolTable
 70
     0
  0
ENDTAB
  0
TABLE
  2
APPID
  5
9
330
0
100
AcDbSymbolTable
 70
     7
  0
APPID
  5
56
330
9
100
AcDbSymbolTableRecord
100
AcDbRegAppTableRecord
  2
ACAD
 70
     0
  0
APPID
  5
5E
330
9
100
AcDbSymbolTableRecord
100
AcDbRegAppTableRecord
  2
AcadAnnotative
 70
     0
  0
APPID
  5
1E9
330
9
100
AcDbSymbolTableRecord
100
AcDbRegAppTableRecord
  2
AcAecLayerStandard
 70
     0
  0
APPID
  5
1EA
330
9
100
AcDbSymbolTableRecord
100
AcDbRegAppTableRecord
  2
AcCmTransparency
 70
     0
  0
APPID
  5
1EB
330
9
100
AcDbSymbolTableRecord
100
AcDbRegAppTableRecord
  2
ACAD_NAV_VCDISPLAY
 70
     0
  0
APPID
  5
4AE
330
9
100
AcDbSymbolTableRecord
100
AcDbRegAppTableRecord
  2
ACAD_EXEMPT_FROM_CAD_STANDARDS
 70
     0
  0
APPID
  5
4CB
330
9
100
AcDbSymbolTableRecord
100
AcDbRegAppTableRecord
  2
Acad_TC
 70
     0
  0
ENDTAB
  0
TABLE
  2
DIMSTYLE
  5
A
330
0
100
AcDbSymbolTable
 70
     3
100
AcDbDimStyleTable
 71
     1
340
58
  0
DIMSTYLE
105
58
330
A
100
AcDbSymbolTableRecord
100
AcDbDimStyleTableRecord
  2
Standard
 70
     0
340
55
  0
DIMSTYLE
105
59
330
A
100
AcDbSymbolTableRecord
100
AcDbDimStyleTableRecord
  2
Annotative
 70
     0
340
55
1001
AcadAnnotative
1000
AnnotativeData
1002
{
1070
     1
1070
     1
1002
}
  0
ENDTAB
  0
TABLE
  2
BLOCK_RECORD
  5
1
330
0
100
AcDbSymbolTable
 70
     3
  0
BLOCK_RECORD
  5
70
102
{ACAD_XDICTIONARY
360
4B6
102
}
330
1
100
AcDbSymbolTableRecord
100
AcDbBlockTableRecord
  2
*Model_Space
340
73
 70
     0
280
     1
281
     0
  0
BLOCK_RECORD
  5
6C
330
1
100
AcDbSymbolTableRecord
100
AcDbBlockTableRecord
  2
*Paper_Space
340
6F
 70
     0
280
     1
281
     0
  0
BLOCK_RECORD
  5
74
330
1
100
AcDbSymbolTableRecord
100
AcDbBlockTableRecord
  2
*Paper_Space0
340
77
 70
     0
280
     1
281
     0
  0
ENDTAB
  0
ENDSEC
  0
SECTION
  2
BLOCKS
  0
BLOCK
  5
71
330
70
100
AcDbEntity
  8
0
100
AcDbBlockBegin
  2
*Model_Space
 70
     0
 10
0.0
 20
0.0
 30
0.0
  3
*Model_Space
  1

  0
ENDBLK
  5
72
330
70
100
AcDbEntity
  8
0
100
AcDbBlockEnd
  0
BLOCK
  5
6D
330
6C
100
AcDbEntity
 67
     1
  8
0
100
AcDbBlockBegin
  2
*Paper_Space
 70
     0
 10
0.0
 20
0.0
 30
0.0
  3
*Paper_Space
  1

  0
ENDBLK
  5
6E
330
6C
100
AcDbEntity
 67
     1
  8
0
100
AcDbBlockEnd
  0
BLOCK
  5
75
330
74
100
AcDbEntity
 67
     1
  8
0
100
AcDbBlockBegin
  2
*Paper_Space0
 70
     0
 10
0.0
 20
0.0
 30
0.0
  3
*Paper_Space0
  1

  0
ENDBLK
  5
76
330
74
100
AcDbEntity
 67
     1
  8
0
100
AcDbBlockEnd
  0
ENDSEC
  0
SECTION
  2
ENTITIES
  0
LINE
  5
377
330
70
100
AcDbEntity
  8
Neck Original
 62
     7
420
 16777215
370
    20
100
AcDbLine
 10
-0.0670531328243342
 20
6.737428861129537
 30
0.0
 11
-0.0670531328243342
 21
6.704931756741022
 31
0.0
  0
LINE
  5
378
330
70
100
AcDbEntity
  8
Neck Original
 62
     7
420
 16777215
370
    20
100
AcDbLine
 10
-0.0670531328243342
 20
6.674928862708421
 30
0.0
 11
-0.0670531328243342
 21
6.487428867445055
 31
0.0
  0
LINE
  5
379
330
70
100
AcDbEntity
  8
Neck Original
 62
     7
420
 16777215
370
    20
100
AcDbLine
 10
-0.0670531328243342
 20
6.454931756741022
 30
0.0
 11
-0.0670531328243342
 21
6.424928869023952
 31
0.0
  0
LINE
  5
37A
330
70
100
AcDbEntity
  8
Neck Original
 62
     7
420
 16777215
370
    20
100
AcDbLine
 10
-0.0670531328243342
 20
6.392431756741022
 30
0.0
 11
-0.0670531328243342
 21
6.204931756741022
 31
0.0
  0
LINE
  5
37B
330
70
100
AcDbEntity
  8
Neck Original
 62
     7
420
 16777215
370
    20
100
AcDbLine
 10
-0.0670531328243342
 20
6.174928875339471
 30
0.0
 11
-0.0670531328243342
 21
6.142431756741022
 31
0.0
  0
LINE
  5
37C
330
70
100
AcDbEntity
  8
Neck Trace
 62
     7
420
 16777215
370
    20
100
AcDbLine
 10
-0.0670531328243342
 20
6.112428876918366
 30
0.0
 11
-0.0670531328243342
 21
5.924928881655014
 31
0.0
  0
LINE
  5
37D
330
70
100
AcDbEntity
  8
Neck Trace
 62
     7
420
 16777215
370
    20
100
AcDbLine
 10
-0.0670531328243342
 20
5.892431756741022
 30
0.0
 11
-0.0670531328243342
 21
5.862428883233897
 31
0.0
  0
LINE
  5
37E
330
70
100
AcDbEntity
  8
Neck Original
 62
     7
420
 16777215
370
    20
100
AcDbLine
 10
-0.0670531328243342
 20
5.829931756741022
 30
0.0
 11
-0.0670531328243342
 21
5.642431756741022
 31
0.0
  0
LINE
  5
37F
330
70
100
AcDbEntity
  8
Neck Original
 62
     7
420
 16777215
370
    20
100
AcDbLine
 10
-0.0670531328243342
 20
5.612428889549428
 30
0.0
 11
-0.0670531328243342
 21
5.579931756741022
 31
0.0
  0
LINE
  5
380
330
70
100
AcDbEntity
  8
Neck Original
 62
     7
420
 16777215
370
    20
100
AcDbLine
 10
-0.0670531328243342
 20
5.549928891128311
 30
0.0
 11
-0.0670531328243342
 21
5.362428895864958
 31
0.0
  0
LINE
  5
381
330
70
100
AcDbEntity
  8
Neck Original
 62
     7
420
 16777215
370
    20
100
AcDbLine
 10
-0.0670531328243342
 20
5.329931756741023
 30
0.0
 11
-0.0670531328243342
 21
5.299928897443842
 31
0.0
  0
LINE
  5
382
330
70
100
AcDbEntity
  8
Neck Original
 62
     7
420
 16777215
370
    20
100
AcDbLine
 10
-0.0670531328243342
 20
5.267431756741023
 30
0.0
 11
-0.0670531328243342
 21
5.079931756741023
 31
0.0
  0
LINE
  5
383
330
70
100
AcDbEntity
  8
Neck Original
 62
     7
420
 16777215
370
    20
100
AcDbLine
 10
-0.0670531328243342
 20
5.049928903759373
 30
0.0
 11
-0.0670531328243342
 21
5.017431756741023
 31
0.0
  0
LINE
  5
384
330
70
100
AcDbEntity
  8
Neck Original
 62
     7
420
 16777215
370
    20
100
AcDbLine
 10
-0.0670531328243342
 20
4.987428905338255
 30
0.0
 11
-0.0670531328243342
 21
4.799928910074905
 31
0.0
  0
LINE
  5
385
330
70
100
AcDbEntity
  8
Neck Original
 62
     7
420
 16777215
370
    20
100
AcDbLine
 10
-0.0670531328243342
 20
4.767431756741023
 30
0.0
 11
-0.0670531328243342
 21
4.737428911653786
 31
0.0
  0
LINE
  5
396
330
70
100
AcDbEntity
  8
Neck Original
 62
     7
420
 16777215
370
    20
100
AcDbLine
 10
11.25294658120838
 20
6.524931756741023
 30
0.0
 11
11.25294658120838
 21
6.494930256144456
 31
0.0
  0
LINE
  5
397
330
70
100
AcDbEntity
  8
Neck Original
 62
     7
420
 16777215
370
    20
100
AcDbLine
 10
11.25294658120838
 20
6.462431756741023
 30
0.0
 11
11.25294658120838
 21
6.274931756741023
 31
0.0
  0
LINE
  5
398
330
70
100
AcDbEntity
  8
Neck Original
 62
     7
420
 16777215
370
    20
100
AcDbLine
 10
11.25294658120838
 20
6.244930262459988
 30
0.0
 11
11.25294658120838
 21
6.212431756741023
 31
0.0
  0
LINE
  5
399
330
70
100
AcDbEntity
  8
Neck Original
 62
     7
420
 16777215
370
    20
100
AcDbLine
 10
11.25294658120838
 20
6.18243026403887
 30
0.0
 11
11.25294658120838
 21
5.994930268775519
 31
0.0
  0
LINE
  5
39A
330
70
100
AcDbEntity
  8
Neck Trace
 62
     7
420
 16777215
370
    20
100
AcDbLine
 10
11.25294658120838
 20
5.962431756741023
 30
0.0
 11
11.25294658120838
 21
5.932430270354402
 31
0.0
  0
LINE
  5
39B
330
70
100
AcDbEntity
  8
Neck Trace
 62
     7
420
 16777215
370
    20
100
AcDbLine
 10
11.25294658120838
 20
5.899931756741023
 30
0.0
 11
11.25294658120838
 21
5.712431756741023
 31
0.0
  0
LINE
  5
39C
330
70
100
AcDbEntity
  8
Neck Original
 62
     7
420
 16777215
370
    20
100
AcDbLine
 10
11.25294658120838
 20
5.682430276669933
 30
0.0
 11
11.25294658120838
 21
5.649931756741023
 31
0.0
  0
LINE
  5
39D
330
70
100
AcDbEntity
  8
Neck Original
 62
     7
420
 16777215
370
    20
100
AcDbLine
 10
11.25294658120838
 20
5.619930278248803
 30
0.0
 11
11.25294658120838
 21
5.432430282985463
 31
0.0
  0
LINE
  5
39E
330
70
100
AcDbEntity
  8
Neck Original
 62
     7
420
 16777215
370
    20
100
AcDbLine
 10
11.25294658120838
 20
5.399931756741023
 30
0.0
 11
11.25294658120838
 21
5.369930284564347
 31
0.0
  0
LINE
  5
39F
330
70
100
AcDbEntity
  8
Neck Original
 62
     7
420
 16777215
370
    20
100
AcDbLine
 10
11.25294658120838
 20
5.337431756741024
 30
0.0
 11
11.25294658120838
 21
5.149931756741035
 31
0.0
  0
LINE
  5
3A0
330
70
100
AcDbEntity
  8
Neck Original
 62
     7
420
 16777215
370
    20
100
AcDbLine
 10
11.25294658120838
 20
5.119930290879878
 30
0.0
 11
11.25294658120838
 21
5.087431756741035
 31
0.0
  0
LINE
  5
3A1
330
70
100
AcDbEntity
  8
Neck Original
 62
     7
420
 16777215
370
    20
100
AcDbLine
 10
11.25294658120838
 20
5.057430292458763
 30
0.0
 11
11.25294658120838
 21
4.867427519480857
 31
0.0
  0
LINE
  5
3AE
330
70
100
AcDbEntity
  8
Neck Original
 62
     7
420
 16777215
370
    20
100
AcDbLine
 10
12.6829469260014
 20
4.892431756741023
 30
0.0
 11
12.6829469260014
 21
6.517431756741022
 31
0.0
  0
LINE
  5
3AF
330
70
100
AcDbEntity
  8
Neck Trace
 62
     7
420
 16777215
370
    20
100
AcDbLine
 10
7.420453622469746
 20
6.603488282248133
 30
0.0
 11
7.420453622469747
 21
4.7935432605822
 31
0.0
  0
LINE
  5
3B0
330
70
100
AcDbEntity
  8
Neck Trace
 62
     7
420
 16777215
370
    20
100
AcDbLine
 10
11.25294658120838
 20
6.540816273176278
 30
0.0
 11
11.25294658120838
 21
4.854635305337429
 31
0.0
  0
LINE
  5
3B1
330
70
100
AcDbEntity
  8
Neck Trace
 62
     7
420
 16777215
370
    20
100
AcDbLine
 10
9.90044800426426
 20
6.562933418333882
 30
0.0
 11
9.900448004264259
 21
4.833075734456638
 31
0.0
  0
LINE
  5
3B2
330
70
100
AcDbEntity
  8
Neck Trace
 62
     7
420
 16777215
370
    20
100
AcDbLine
 10
8.625450814251179
 20
6.583783198442906
 30
0.0
 11
8.62545081425118
 21
4.812751578291533
 31
0.0
  0
LINE
  5
3B3
330
70
100
AcDbEntity
  8
Neck Trace
 62
     7
420
 16777215
370
    20
100
AcDbLine
 10
6.285444148223621
 20
6.622048870573391
 30
0.0
 11
6.285444148223621
 21
4.775450585567586
 31
0.0
  0
LINE
  5
3B4
330
70
100
AcDbEntity
  8
Neck Trace
 62
     7
420
 16777215
370
    20
100
AcDbLine
 10
5.2129481226805
 20
6.639587188677566
 30
0.0
 11
5.212948122680499
 21
4.758354409293371
 31
0.0
  0
LINE
  5
3B5
330
70
100
AcDbEntity
  8
Neck Trace
 62
     7
420
 16777215
370
    20
100
AcDbLine
 10
4.200442592702984
 20
6.656144493920714
 30
0.0
 11
4.200442592702985
 21
4.742214514499497
 31
0.0
  0
LINE
  5
3B6
330
70
100
AcDbEntity
  8
Neck Trace
 62
     7
420
 16777215
370
    20
100
AcDbLine
 10
3.245446783494878
 20
6.671761353928717
 30
0.0
 11
3.245446783494877
 21
4.726991356271856
 31
0.0
  0
LINE
  5
3B7
330
70
100
AcDbEntity
  8
Neck Trace
 62
     7
420
 16777215
370
    20
100
AcDbLine
 10
2.342953750738213
 20
6.686519646284412
 30
0.0
 11
2.342953750738213
 21
4.712605121165349
 31
0.0
  0
LINE
  5
3B8
330
70
100
AcDbEntity
  8
Neck Trace
 62
     7
420
 16777215
370
    20
100
AcDbLine
 10
1.492950994433311
 20
6.700419575397858
 30
0.0
 11
1.492950994433311
 21
4.699055609923106
 31
0.0
  0
LINE
  5
3B9
330
70
100
AcDbEntity
  8
Neck Trace
 62
     7
420
 16777215
370
    20
100
AcDbLine
 10
0.6904468480396063
 20
6.71354276901738
 30
0.0
 11
0.6904468480396062
 21
4.686263252636198
 31
0.0
  0
LINE
  5
3BA
330
70
100
AcDbEntity
  8
Neck Trace
 62
     7
420
 16777215
370
    20
100
AcDbLine
 10
-0.0670531328243342
 20
6.725930018304921
 30
0.0
 11
-0.0670531328243343
 21
4.674188286489814
 31
0.0
  0
LINE
  5
3BB
330
70
100
AcDbEntity
  8
Neck Trace
 62
     7
420
 16777215
370
    20
100
AcDbLine
 10
-0.7845558517763759
 20
6.737663200177755
 30
0.0
 11
-0.7845558517763762
 21
4.662750898687634
 31
0.0
  0
LINE
  5
3BC
330
70
100
AcDbEntity
  8
Neck Trace
 62
     7
420
 16777215
370
    20
100
AcDbLine
 10
-1.459550296220815
 20
6.748701252537179
 30
0.0
 11
-1.459550296220815
 21
4.651991116150917
 31
0.0
  0
LINE
  5
3BD
330
70
100
AcDbEntity
  8
Neck Trace
 62
     7
420
 16777215
370
    20
100
AcDbLine
 10
-2.117048907331938
 20
6.759453198950108
 30
0.0
 11
-2.117048907331938
 21
4.641510226816231
 31
0.0
  0
LINE
  5
3BE
330
70
100
AcDbEntity
  8
Neck Trace
 62
     7
420
 16777215
370
    20
100
AcDbLine
 10
-2.697058629554157
 20
6.768937984692503
 30
0.0
 11
-2.697058629554156
 21
4.632264552971568
 31
0.0
  0
LINE
  5
3BF
330
70
100
AcDbEntity
  8
Neck Trace
 62
     7
420
 16777215
370
    20
100
AcDbLine
 10
-3.267058629554158
 20
6.778259083401766
 30
0.0
 11
-3.267058629554157
 21
4.623178439602179
 31
0.0
  0
LINE
  5
3C0
330
70
100
AcDbEntity
  8
Neck Trace
 62
     7
420
 16777215
370
    20
100
AcDbLine
 10
-3.802053073998596
 20
6.787007743095755
 30
0.0
 11
-3.802053073998596
 21
4.614650334033381
 31
0.0
  0
LINE
  5
3C1
330
70
100
AcDbEntity
  8
Neck Trace
 62
     7
420
 16777215
370
    20
100
AcDbLine
 10
-4.309553073998608
 20
6.79530679150795
 30
0.0
 11
-4.309553073998608
 21
4.606560505024671
 31
0.0
  0
LINE
  5
3C2
330
70
100
AcDbEntity
  8
Neck Trace
 62
     7
420
 16777215
370
    20
100
AcDbLine
 10
-4.78705168510969
 20
6.803115233065323
 30
0.0
 11
-4.787051685109692
 21
4.598948914648741
 31
0.0
  0
LINE
  5
3C3
330
70
100
AcDbEntity
  8
Neck Trace
 62
     7
420
 16777215
370
    20
100
AcDbLine
 10
-5.237057240665266
 20
6.81047408605313
 30
0.0
 11
-5.237057240665266
 21
4.591775578693245
 31
0.0
  0
LINE
  5
3F4
330
70
100
AcDbEntity
  8
Neck Original
 62
     7
420
 16777215
370
    20
100
AcDbLine
 10
13.27544831489025
 20
5.702428887275837
 30
0.0
 11
13.08794831489025
 21
5.702428887275837
 31
0.0
  0
LINE
  5
3F5
330
70
100
AcDbEntity
  8
Neck Original
 62
     7
420
 16777215
370
    20
100
AcDbLine
 10
13.0579469260014
 20
5.702428887275837
 30
0.0
 11
13.02544831489025
 21
5.702428887275837
 31
0.0
  0
LINE
  5
3F6
330
70
100
AcDbEntity
  8
Neck Original
 62
     7
420
 16777215
370
    20
100
AcDbLine
 10
12.9954469260014
 20
5.702428887275837
 30
0.0
 11
12.8079469260014
 21
5.702428887275837
 31
0.0
  0
LINE
  5
3F7
330
70
100
AcDbEntity
  8
Neck Original
 62
     7
420
 16777215
370
    20
100
AcDbLine
 10
12.77544831489025
 20
5.702428887275837
 30
0.0
 11
12.7454469260014
 21
5.702428887275837
 31
0.0
  0
LINE
  5
3F8
330
70
100
AcDbEntity
  8
Neck Original
 62
     7
420
 16777215
370
    20
100
AcDbLine
 10
12.71294831489025
 20
5.702428887275837
 30
0.0
 11
12.52544831489025
 21
5.702428887275837
 31
0.0
  0
LINE
  5
3F9
330
70
100
AcDbEntity
  8
Neck Original
 62
     7
420
 16777215
370
    20
100
AcDbLine
 10
12.4954469260014
 20
5.702428887275837
 30
0.0
 11
12.46294831489025
 21
5.702428887275837
 31
0.0
  0
LINE
  5
3FA
330
70
100
AcDbEntity
  8
Neck Original
 62
     7
420
 16777215
370
    20
100
AcDbLine
 10
12.4329469260014
 20
5.702428887275837
 30
0.0
 11
12.2454469260014
 21
5.702428887275837
 31
0.0
  0
LINE
  5
3FB
330
70
100
AcDbEntity
  8
Neck Original
 62
     7
420
 16777215
370
    20
100
AcDbLine
 10
12.21294831489025
 20
5.702428887275837
 30
0.0
 11
12.1829469260014
 21
5.702428887275837
 31
0.0
  0
LINE
  5
3FC
330
70
100
AcDbEntity
  8
Neck Original
 62
     7
420
 16777215
370
    20
100
AcDbLine
 10
12.15044831489025
 20
5.702428887275837
 30
0.0
 11
11.96294831489025
 21
5.702428887275837
 31
0.0
  0
LINE
  5
3FD
330
70
100
AcDbEntity
  8
Neck Original
 62
     7
420
 16777215
370
    20
100
AcDbLine
 10
11.9329469260014
 20
5.702428887275837
 30
0.0
 11
11.90044831489025
 21
5.702428887275837
 31
0.0
  0
LINE
  5
3FE
330
70
100
AcDbEntity
  8
Neck Original
 62
     7
420
 16777215
370
    20
100
AcDbLine
 10
11.8704469260014
 20
5.702428887275837
 30
0.0
 11
11.6829469260014
 21
5.702428887275837
 31
0.0
  0
LINE
  5
3FF
330
70
100
AcDbEntity
  8
Neck Original
 62
     7
420
 16777215
370
    20
100
AcDbLine
 10
11.65044831489025
 20
5.702428887275837
 30
0.0
 11
11.6204469260014
 21
5.702428887275837
 31
0.0
  0
LINE
  5
400
330
70
100
AcDbEntity
  8
Neck Original
 62
     7
420
 16777215
370
    20
100
AcDbLine
 10
11.58794831489025
 20
5.702428887275837
 30
0.0
 11
11.40044796637107
 21
5.702428887275837
 31
0.0
  0
LINE
  5
401
330
70
100
AcDbEntity
  8
Neck Original
 62
     7
420
 16777215
370
    20
100
AcDbLine
 10
11.37044657824008
 20
5.702428887275837
 30
0.0
 11
11.33794796794995
 21
5.702428887275837
 31
0.0
  0
LINE
  5
402
330
70
100
AcDbEntity
  8
Neck Original
 62
     7
420
 16777215
370
    20
100
AcDbLine
 10
11.30794657981897
 20
5.702428887275837
 30
0.0
 11
11.12044658455561
 21
5.702428887275837
 31
0.0
  0
LINE
  5
403
330
70
100
AcDbEntity
  8
Neck Original
 62
     7
420
 16777215
370
    20
100
AcDbLine
 10
11.08794797426549
 20
5.702428887275837
 30
0.0
 11
11.0579465861345
 21
5.702428887275837
 31
0.0
  0
LINE
  5
404
330
70
100
AcDbEntity
  8
Neck Original
 62
     7
420
 16777215
370
    20
100
AcDbLine
 10
11.02544797584437
 20
5.702428887275837
 30
0.0
 11
10.83794798058102
 21
5.702428887275837
 31
0.0
  0
LINE
  5
405
330
70
100
AcDbEntity
  8
Neck Original
 62
     7
420
 16777215
370
    20
100
AcDbLine
 10
10.80794659245003
 20
5.702428887275837
 30
0.0
 11
10.7754479821599
 21
5.702428887275837
 31
0.0
  0
LINE
  5
406
330
70
100
AcDbEntity
  8
Neck Original
 62
     7
420
 16777215
370
    20
100
AcDbLine
 10
10.74544659402891
 20
5.702428887275837
 30
0.0
 11
10.55794659876556
 21
5.702428887275837
 31
0.0
  0
LINE
  5
407
330
70
100
AcDbEntity
  8
Neck Original
 62
     7
420
 16777215
370
    20
100
AcDbLine
 10
10.52544798847543
 20
5.702428887275837
 30
0.0
 11
10.49544660034444
 21
5.702428887275837
 31
0.0
  0
LINE
  5
408
330
70
100
AcDbEntity
  8
Neck Original
 62
     7
420
 16777215
370
    20
100
AcDbLine
 10
10.46294799005432
 20
5.702428887275837
 30
0.0
 11
10.27544799479096
 21
5.702428887275837
 31
0.0
  0
LINE
  5
409
330
70
100
AcDbEntity
  8
Neck Original
 62
     7
420
 16777215
370
    20
100
AcDbLine
 10
10.24544660665998
 20
5.702428887275837
 30
0.0
 11
10.21294799636985
 21
5.702428887275837
 31
0.0
  0
LINE
  5
40A
330
70
100
AcDbEntity
  8
Neck Original
 62
     7
420
 16777215
370
    20
100
AcDbLine
 10
10.18294660823886
 20
5.702428887275837
 30
0.0
 11
9.995446612975509
 21
5.702428887275837
 31
0.0
  0
LINE
  5
40B
330
70
100
AcDbEntity
  8
Neck Original
 62
     7
420
 16777215
370
    20
100
AcDbLine
 10
9.962948002685379
 20
5.702428887275837
 30
0.0
 11
9.932946614554392
 21
5.702428887275837
 31
0.0
  0
LINE
  5
40C
330
70
100
AcDbEntity
  8
Neck Original
 62
     7
420
 16777215
370
    20
100
AcDbLine
 10
9.900448004264262
 20
5.702428887275837
 30
0.0
 11
9.712948009000911
 21
5.702428887275837
 31
0.0
  0
LINE
  5
40D
330
70
100
AcDbEntity
  8
Neck Original
 62
     7
420
 16777215
370
    20
100
AcDbLine
 10
9.68294662086992
 20
5.702428887275837
 30
0.0
 11
9.650448010579793
 21
5.702428887275837
 31
0.0
  0
LINE
  5
40E
330
70
100
AcDbEntity
  8
Neck Original
 62
     7
420
 16777215
370
    20
100
AcDbLine
 10
9.620446622448806
 20
5.702428887275837
 30
0.0
 11
9.432946627185454
 21
5.702428887275837
 31
0.0
  0
LINE
  5
40F
330
70
100
AcDbEntity
  8
Neck Original
 62
     7
420
 16777215
370
    20
100
AcDbLine
 10
9.400448016895325
 20
5.702428887275837
 30
0.0
 11
9.370446628764337
 21
5.702428887275837
 31
0.0
  0
LINE
  5
410
330
70
100
AcDbEntity
  8
Neck Original
 62
     7
420
 16777215
370
    20
100
AcDbLine
 10
9.337948018474207
 20
5.702428887275837
 30
0.0
 11
9.150448023210856
 21
5.702428887275837
 31
0.0
  0
LINE
  5
411
330
70
100
AcDbEntity
  8
Neck Original
 62
     7
420
 16777215
370
    20
100
AcDbLine
 10
9.120446635079868
 20
5.702428887275837
 30
0.0
 11
9.087948024789739
 21
5.702428887275837
 31
0.0
  0
LINE
  5
412
330
70
100
AcDbEntity
  8
Neck Original
 62
     7
420
 16777215
370
    20
100
AcDbLine
 10
9.057946636658751
 20
5.702428887275837
 30
0.0
 11
8.8704466413954
 21
5.702428887275837
 31
0.0
  0
LINE
  5
413
330
70
100
AcDbEntity
  8
Neck Original
 62
     7
420
 16777215
370
    20
100
AcDbLine
 10
8.83794803110527
 20
5.702428887275837
 30
0.0
 11
8.807946642974282
 21
5.702428887275837
 31
0.0
  0
LINE
  5
414
330
70
100
AcDbEntity
  8
Neck Original
 62
     7
420
 16777215
370
    20
100
AcDbLine
 10
8.775448032684153
 20
5.702428887275837
 30
0.0
 11
8.587948037420801
 21
5.702428887275837
 31
0.0
  0
LINE
  5
415
330
70
100
AcDbEntity
  8
Neck Original
 62
     7
420
 16777215
370
    20
100
AcDbLine
 10
8.557946649289814
 20
5.702428887275837
 30
0.0
 11
8.525448038999684
 21
5.702428887275837
 31
0.0
  0
LINE
  5
416
330
70
100
AcDbEntity
  8
Neck Original
 62
     7
420
 16777215
370
    20
100
AcDbLine
 10
8.495446650868696
 20
5.702428887275837
 30
0.0
 11
8.307946655605345
 21
5.702428887275837
 31
0.0
  0
LINE
  5
417
330
70
100
AcDbEntity
  8
Neck Original
 62
     7
420
 16777215
370
    20
100
AcDbLine
 10
8.275448045315215
 20
5.702428887275837
 30
0.0
 11
8.245446657184224
 21
5.702428887275837
 31
0.0
  0
LINE
  5
418
330
70
100
AcDbEntity
  8
Neck Original
 62
     7
420
 16777215
370
    20
100
AcDbLine
 10
8.212948046894098
 20
5.702428887275837
 30
0.0
 11
8.025448051630746
 21
5.702428887275837
 31
0.0
  0
LINE
  5
419
330
70
100
AcDbEntity
  8
Neck Original
 62
     7
420
 16777215
370
    20
100
AcDbLine
 10
7.995446663499756
 20
5.702428887275837
 30
0.0
 11
7.96294805320963
 21
5.702428887275837
 31
0.0
  0
LINE
  5
41A
330
70
100
AcDbEntity
  8
Neck Original
 62
     7
420
 16777215
370
    20
100
AcDbLine
 10
7.932946665078641
 20
5.702428887275837
 30
0.0
 11
7.745446669815287
 21
5.702428887275837
 31
0.0
  0
LINE
  5
41B
330
70
100
AcDbEntity
  8
Neck Original
 62
     7
420
 16777215
370
    20
100
AcDbLine
 10
7.712948059525161
 20
5.702428887275837
 30
0.0
 11
7.68294667139417
 21
5.702428887275837
 31
0.0
  0
LINE
  5
41C
330
70
100
AcDbEntity
  8
Neck Original
 62
     7
420
 16777215
370
    20
100
AcDbLine
 10
7.650448061104044
 20
5.702428887275837
 30
0.0
 11
7.462948065840692
 21
5.702428887275837
 31
0.0
  0
LINE
  5
41D
330
70
100
AcDbEntity
  8
Neck Original
 62
     7
420
 16777215
370
    20
100
AcDbLine
 10
7.432946677709701
 20
5.702428887275837
 30
0.0
 11
7.400448067419575
 21
5.702428887275837
 31
0.0
  0
LINE
  5
41E
330
70
100
AcDbEntity
  8
Neck Original
 62
     7
420
 16777215
370
    20
100
AcDbLine
 10
7.370446679288586
 20
5.702428887275837
 30
0.0
 11
7.182946684025233
 21
5.702428887275837
 31
0.0
  0
LINE
  5
41F
330
70
100
AcDbEntity
  8
Neck Original
 62
     7
420
 16777215
370
    20
100
AcDbLine
 10
7.150448073735106
 20
5.702428887275837
 30
0.0
 11
7.120446685604115
 21
5.702428887275837
 31
0.0
  0
LINE
  5
420
330
70
100
AcDbEntity
  8
Neck Original
 62
     7
420
 16777215
370
    20
100
AcDbLine
 10
7.087948075313989
 20
5.702428887275837
 30
0.0
 11
6.900448080050652
 21
5.702428887275837
 31
0.0
  0
LINE
  5
421
330
70
100
AcDbEntity
  8
Neck Original
 62
     7
420
 16777215
370
    20
100
AcDbLine
 10
6.870446691919661
 20
5.702428887275837
 30
0.0
 11
6.837948081629535
 21
5.702428887275837
 31
0.0
  0
LINE
  5
422
330
70
100
AcDbEntity
  8
Neck Original
 62
     7
420
 16777215
370
    20
100
AcDbLine
 10
6.807946693498545
 20
5.702428887275837
 30
0.0
 11
6.620446698235192
 21
5.702428887275837
 31
0.0
  0
LINE
  5
423
330
70
100
AcDbEntity
  8
Neck Original
 62
     7
420
 16777215
370
    20
100
AcDbLine
 10
6.587948087945066
 20
5.702428887275837
 30
0.0
 11
6.557946699814075
 21
5.702428887275837
 31
0.0
  0
LINE
  5
424
330
70
100
AcDbEntity
  8
Neck Original
 62
     7
420
 16777215
370
    20
100
AcDbLine
 10
6.525448089523949
 20
5.702428887275837
 30
0.0
 11
6.337948094260595
 21
5.702428887275837
 31
0.0
  0
LINE
  5
425
330
70
100
AcDbEntity
  8
Neck Original
 62
     7
420
 16777215
370
    20
100
AcDbLine
 10
6.307946706129606
 20
5.702428887275837
 30
0.0
 11
6.27544809583948
 21
5.702428887275837
 31
0.0
  0
LINE
  5
426
330
70
100
AcDbEntity
  8
Neck Original
 62
     7
420
 16777215
370
    20
100
AcDbLine
 10
6.245446707708489
 20
5.702428887275837
 30
0.0
 11
6.057946712445137
 21
5.702428887275837
 31
0.0
  0
LINE
  5
427
330
70
100
AcDbEntity
  8
Neck Original
 62
     7
420
 16777215
370
    20
100
AcDbLine
 10
6.025448102155011
 20
5.702428887275837
 30
0.0
 11
5.99544671402402
 21
5.702428887275837
 31
0.0
  0
LINE
  5
428
330
70
100
AcDbEntity
  8
Neck Original
 62
     7
420
 16777215
370
    20
100
AcDbLine
 10
5.962948103733894
 20
5.702428887275837
 30
0.0
 11
5.775448108470555
 21
5.702428887275837
 31
0.0
  0
LINE
  5
429
330
70
100
AcDbEntity
  8
Neck Original
 62
     7
420
 16777215
370
    20
100
AcDbLine
 10
5.745446720339551
 20
5.702428887275837
 30
0.0
 11
5.712948110049425
 21
5.702428887275837
 31
0.0
  0
LINE
  5
42A
330
70
100
AcDbEntity
  8
Neck Original
 62
     7
420
 16777215
370
    20
100
AcDbLine
 10
5.682946721918434
 20
5.702428887275837
 30
0.0
 11
5.495446726655068
 21
5.702428887275837
 31
0.0
  0
LINE
  5
42B
330
70
100
AcDbEntity
  8
Neck Original
 62
     7
420
 16777215
370
    20
100
AcDbLine
 10
5.462948116364954
 20
5.702428887275837
 30
0.0
 11
5.432946728233965
 21
5.702428887275837
 31
0.0
  0
LINE
  5
42C
330
70
100
AcDbEntity
  8
Neck Original
 62
     7
420
 16777215
370
    20
100
AcDbLine
 10
5.400448117943839
 20
5.702428887275837
 30
0.0
 11
5.2129481226805
 21
5.702428887275837
 31
0.0
  0
LINE
  5
42D
330
70
100
AcDbEntity
  8
Neck Original
 62
     7
420
 16777215
370
    20
100
AcDbLine
 10
5.182946734549497
 20
5.702428887275837
 30
0.0
 11
5.15044812425937
 21
5.702428887275837
 31
0.0
  0
LINE
  5
42E
330
70
100
AcDbEntity
  8
Neck Original
 62
     7
420
 16777215
370
    20
100
AcDbLine
 10
5.120446736128379
 20
5.702428887275837
 30
0.0
 11
4.93294674086504
 21
5.702428887275837
 31
0.0
  0
LINE
  5
42F
330
70
100
AcDbEntity
  8
Neck Original
 62
     7
420
 16777215
370
    20
100
AcDbLine
 10
4.900448130574901
 20
5.702428887275837
 30
0.0
 11
4.870446742443911
 21
5.702428887275837
 31
0.0
  0
LINE
  5
430
330
70
100
AcDbEntity
  8
Neck Original
 62
     7
420
 16777215
370
    20
100
AcDbLine
 10
4.837948132153784
 20
5.702428887275837
 30
0.0
 11
4.650448136890433
 21
5.702428887275837
 31
0.0
  0
LINE
  5
431
330
70
100
AcDbEntity
  8
Neck Original
 62
     7
420
 16777215
370
    20
100
AcDbLine
 10
4.620446748759442
 20
5.702428887275837
 30
0.0
 11
4.587948138469315
 21
5.702428887275837
 31
0.0
  0
LINE
  5
432
330
70
100
AcDbEntity
  8
Neck Original
 62
     7
420
 16777215
370
    20
100
AcDbLine
 10
4.557946750338325
 20
5.702428887275837
 30
0.0
 11
4.370446755074985
 21
5.702428887275837
 31
0.0
  0
LINE
  5
433
330
70
100
AcDbEntity
  8
Neck Original
 62
     7
420
 16777215
370
    20
100
AcDbLine
 10
4.337948144784847
 20
5.702428887275837
 30
0.0
 11
4.307946756653856
 21
5.702428887275837
 31
0.0
  0
LINE
  5
434
330
70
100
AcDbEntity
  8
Neck Original
 62
     7
420
 16777215
370
    20
100
AcDbLine
 10
4.275448146363729
 20
5.702428887275837
 30
0.0
 11
4.087948151100378
 21
5.702428887275837
 31
0.0
  0
LINE
  5
435
330
70
100
AcDbEntity
  8
Neck Original
 62
     7
420
 16777215
370
    20
100
AcDbLine
 10
4.057946762969387
 20
5.702428887275837
 30
0.0
 11
4.025448152679261
 21
5.702428887275837
 31
0.0
  0
LINE
  5
436
330
70
100
AcDbEntity
  8
Neck Original
 62
     7
420
 16777215
370
    20
100
AcDbLine
 10
3.99544676454827
 20
5.702428887275837
 30
0.0
 11
3.807946769284918
 21
5.702428887275837
 31
0.0
  0
LINE
  5
437
330
70
100
AcDbEntity
  8
Neck Original
 62
     7
420
 16777215
370
    20
100
AcDbLine
 10
3.775448158994778
 20
5.702428887275837
 30
0.0
 11
3.745446770863801
 21
5.702428887275837
 31
0.0
  0
LINE
  5
438
330
70
100
AcDbEntity
  8
Neck Original
 62
     7
420
 16777215
370
    20
100
AcDbLine
 10
3.712948160573675
 20
5.702428887275837
 30
0.0
 11
3.525448165310336
 21
5.702428887275837
 31
0.0
  0
LINE
  5
439
330
70
100
AcDbEntity
  8
Neck Original
 62
     7
420
 16777215
370
    20
100
AcDbLine
 10
3.495446777179345
 20
5.702428887275837
 30
0.0
 11
3.462948166889217
 21
5.702428887275837
 31
0.0
  0
LINE
  5
43A
330
70
100
AcDbEntity
  8
Neck Original
 62
     7
420
 16777215
370
    20
100
AcDbLine
 10
3.432946778758227
 20
5.702428887275837
 30
0.0
 11
3.245446783494878
 21
5.702428887275837
 31
0.0
  0
LINE
  5
43B
330
70
100
AcDbEntity
  8
Neck Original
 62
     7
420
 16777215
370
    20
100
AcDbLine
 10
3.21294817320475
 20
5.702428887275837
 30
0.0
 11
3.182946785073759
 21
5.702428887275837
 31
0.0
  0
LINE
  5
43C
330
70
100
AcDbEntity
  8
Neck Original
 62
     7
420
 16777215
370
    20
100
AcDbLine
 10
3.150448174783632
 20
5.702428887275837
 30
0.0
 11
2.962948179520281
 21
5.702428887275837
 31
0.0
  0
LINE
  5
43D
330
70
100
AcDbEntity
  8
Neck Original
 62
     7
420
 16777215
370
    20
100
AcDbLine
 10
2.93294679138929
 20
5.702428887275837
 30
0.0
 11
2.900448181099164
 21
5.702428887275837
 31
0.0
  0
LINE
  5
43E
330
70
100
AcDbEntity
  8
Neck Original
 62
     7
420
 16777215
370
    20
100
AcDbLine
 10
2.870446792968174
 20
5.702428887275837
 30
0.0
 11
2.682946797704821
 21
5.702428887275837
 31
0.0
  0
LINE
  5
43F
330
70
100
AcDbEntity
  8
Neck Original
 62
     7
420
 16777215
370
    20
100
AcDbLine
 10
2.650448187414682
 20
5.702428887275837
 30
0.0
 11
2.620446799283704
 21
5.702428887275837
 31
0.0
  0
LINE
  5
440
330
70
100
AcDbEntity
  8
Neck Original
 62
     7
420
 16777215
370
    20
100
AcDbLine
 10
2.587948188993578
 20
5.702428887275837
 30
0.0
 11
2.400448193730226
 21
5.702428887275837
 31
0.0
  0
LINE
  5
441
330
70
100
AcDbEntity
  8
Neck Original
 62
     7
420
 16777215
370
    20
100
AcDbLine
 10
2.370446805599235
 20
5.702428887275837
 30
0.0
 11
2.337948195309109
 21
5.702428887275837
 31
0.0
  0
LINE
  5
442
330
70
100
AcDbEntity
  8
Neck Original
 62
     7
420
 16777215
370
    20
100
AcDbLine
 10
2.307946807178118
 20
5.702428887275837
 30
0.0
 11
2.120446811914766
 21
5.702428887275837
 31
0.0
  0
LINE
  5
443
330
70
100
AcDbEntity
  8
Neck Original
 62
     7
420
 16777215
370
    20
100
AcDbLine
 10
2.087948201624652
 20
5.702428887275837
 30
0.0
 11
2.057946813493649
 21
5.702428887275837
 31
0.0
  0
LINE
  5
444
330
70
100
AcDbEntity
  8
Neck Original
 62
     7
420
 16777215
370
    20
100
AcDbLine
 10
2.025448203203523
 20
5.702428887275837
 30
0.0
 11
1.83794820794017
 21
5.702428887275837
 31
0.0
  0
LINE
  5
445
330
70
100
AcDbEntity
  8
Neck Original
 62
     7
420
 16777215
370
    20
100
AcDbLine
 10
1.80794681980918
 20
5.702428887275837
 30
0.0
 11
1.775448209519054
 21
5.702428887275837
 31
0.0
  0
LINE
  5
446
330
70
100
AcDbEntity
  8
Neck Original
 62
     7
420
 16777215
370
    20
100
AcDbLine
 10
1.745446821388063
 20
5.702428887275837
 30
0.0
 11
1.557946826124712
 21
5.702428887275837
 31
0.0
  0
LINE
  5
447
330
70
100
AcDbEntity
  8
Neck Original
 62
     7
420
 16777215
370
    20
100
AcDbLine
 10
1.525448215834584
 20
5.702428887275837
 30
0.0
 11
1.495446827703594
 21
5.702428887275837
 31
0.0
  0
LINE
  5
448
330
70
100
AcDbEntity
  8
Neck Original
 62
     7
420
 16777215
370
    20
100
AcDbLine
 10
1.462948217413468
 20
5.702428887275837
 30
0.0
 11
1.275448222150116
 21
5.702428887275837
 31
0.0
  0
LINE
  5
449
330
70
100
AcDbEntity
  8
Neck Original
 62
     7
420
 16777215
370
    20
100
AcDbLine
 10
1.245446834019126
 20
5.702428887275837
 30
0.0
 11
1.212948223728999
 21
5.702428887275837
 31
0.0
  0
LINE
  5
44A
330
70
100
AcDbEntity
  8
Neck Original
 62
     7
420
 16777215
370
    20
100
AcDbLine
 10
1.182946835598009
 20
5.702428887275837
 30
0.0
 11
0.9954468403346581
 21
5.702428887275837
 31
0.0
  0
LINE
  5
44B
330
70
100
AcDbEntity
  8
Neck Original
 62
     7
420
 16777215
370
    20
100
AcDbLine
 10
0.9629482300445308
 20
5.702428887275837
 30
0.0
 11
0.9329468419135409
 21
5.702428887275837
 31
0.0
  0
LINE
  5
44C
330
70
100
AcDbEntity
  8
Neck Original
 62
     7
420
 16777215
370
    20
100
AcDbLine
 10
0.9004482316234136
 20
5.702428887275837
 30
0.0
 11
0.7129482363600621
 21
5.702428887275837
 31
0.0
  0
LINE
  5
44D
330
70
100
AcDbEntity
  8
Neck Original
 62
     7
420
 16777215
370
    20
100
AcDbLine
 10
0.6829468482290722
 20
5.702428887275837
 30
0.0
 11
0.6504482379389449
 21
5.702428887275837
 31
0.0
  0
LINE
  5
44E
330
70
100
AcDbEntity
  8
Neck Original
 62
     7
420
 16777215
370
    20
100
AcDbLine
 10
0.620446849807955
 20
5.702428887275837
 30
0.0
 11
0.4329468545446034
 21
5.702428887275837
 31
0.0
  0
LINE
  5
44F
330
70
100
AcDbEntity
  8
Neck Original
 62
     7
420
 16777215
370
    20
100
AcDbLine
 10
0.4004482442544762
 20
5.702428887275837
 30
0.0
 11
0.3704468561234862
 21
5.702428887275837
 31
0.0
  0
LINE
  5
450
330
70
100
AcDbEntity
  8
Neck Original
 62
     7
420
 16777215
370
    20
100
AcDbLine
 10
0.3379482458333589
 20
5.702428887275837
 30
0.0
 11
0.1504482505700073
 21
5.702428887275837
 31
0.0
  0
LINE
  5
451
330
70
100
AcDbEntity
  8
Neck Original
 62
     7
420
 16777215
370
    20
100
AcDbLine
 10
0.1204468624390174
 20
5.702428887275837
 30
0.0
 11
0.0879482521488901
 21
5.702428887275837
 31
0.0
  0
LINE
  5
452
330
70
100
AcDbEntity
  8
Neck Original
 62
     7
420
 16777215
370
    20
100
AcDbLine
 10
0.0579468640179002
 20
5.702428887275837
 30
0.0
 11
-0.1295531312454514
 21
5.702428887275837
 31
0.0
  0
LINE
  5
453
330
70
100
AcDbEntity
  8
Neck Original
 62
     7
420
 16777215
370
    20
100
AcDbLine
 10
-0.1620517415355787
 20
5.702428887275837
 30
0.0
 11
-0.1920531296665686
 21
5.702428887275837
 31
0.0
  0
LINE
  5
454
330
70
100
AcDbEntity
  8
Neck Original
 62
     7
420
 16777215
370
    20
100
AcDbLine
 10
-0.2245517399566959
 20
5.702428887275837
 30
0.0
 11
-0.4120517352200475
 21
5.702428887275837
 31
0.0
  0
LINE
  5
455
330
70
100
AcDbEntity
  8
Neck Original
 62
     7
420
 16777215
370
    20
100
AcDbLine
 10
-0.4420531233510375
 20
5.702428887275837
 30
0.0
 11
-0.4745517336411647
 21
5.702428887275837
 31
0.0
  0
LINE
  5
456
330
70
100
AcDbEntity
  8
Neck Original
 62
     7
420
 16777215
370
    20
100
AcDbLine
 10
-0.5045531217721547
 20
5.702428887275837
 30
0.0
 11
-0.6920531170355054
 21
5.702428887275837
 31
0.0
  0
LINE
  5
457
330
70
100
AcDbEntity
  8
Neck Original
 62
     7
420
 16777215
370
    20
100
AcDbLine
 10
-0.7245517273256317
 20
5.702428887275837
 30
0.0
 11
-0.7545531154566226
 21
5.702428887275837
 31
0.0
  0
LINE
  5
458
330
70
100
AcDbEntity
  8
Neck Original
 62
     7
420
 16777215
370
    20
100
AcDbLine
 10
-0.7870517257467498
 20
5.702428887275837
 30
0.0
 11
-0.9745517210101013
 21
5.702428887275837
 31
0.0
  0
LINE
  5
459
330
70
100
AcDbEntity
  8
Neck Original
 62
     7
420
 16777215
370
    20
100
AcDbLine
 10
-1.004553109141091
 20
5.702428887275837
 30
0.0
 11
-1.037051685109704
 21
5.702428887275837
 31
0.0
  0
LINE
  5
45A
330
70
100
AcDbEntity
  8
Neck Original
 62
     7
420
 16777215
370
    20
100
AcDbLine
 10
-1.069548907331935
 20
5.702428887275837
 30
0.0
 11
-1.257048907331935
 21
5.702428887275837
 31
0.0
  0
LINE
  5
45B
330
70
100
AcDbEntity
  8
Neck Original
 62
     7
420
 16777215
370
    20
100
AcDbLine
 10
-1.287051685109704
 20
5.702428887275837
 30
0.0
 11
-1.319548907331935
 21
5.702428887275837
 31
0.0
  0
LINE
  5
45C
330
70
100
AcDbEntity
  8
Neck Original
 62
     7
420
 16777215
370
    20
100
AcDbLine
 10
-1.349551685109704
 20
5.702428887275837
 30
0.0
 11
-1.537051685109704
 21
5.702428887275837
 31
0.0
  0
LINE
  5
45D
330
70
100
AcDbEntity
  8
Neck Original
 62
     7
420
 16777215
370
    20
100
AcDbLine
 10
-1.569548907331936
 20
5.702428887275837
 30
0.0
 11
-1.599551685109704
 21
5.702428887275837
 31
0.0
  0
LINE
  5
45E
330
70
100
AcDbEntity
  8
Neck Original
 62
     7
420
 16777215
370
    20
100
AcDbLine
 10
-1.632048907331936
 20
5.702428887275837
 30
0.0
 11
-1.819548907331936
 21
5.702428887275837
 31
0.0
  0
LINE
  5
45F
330
70
100
AcDbEntity
  8
Neck Original
 62
     7
420
 16777215
370
    20
100
AcDbLine
 10
-1.849551685109704
 20
5.702428887275837
 30
0.0
 11
-1.882048907331936
 21
5.702428887275837
 31
0.0
  0
LINE
  5
460
330
70
100
AcDbEntity
  8
Neck Original
 62
     7
420
 16777215
370
    20
100
AcDbLine
 10
-1.912051685109704
 20
5.702428887275837
 30
0.0
 11
-2.099551685109704
 21
5.702428887275837
 31
0.0
  0
LINE
  5
461
330
70
100
AcDbEntity
  8
Neck Original
 62
     7
420
 16777215
370
    20
100
AcDbLine
 10
-2.132048907331936
 20
5.702428887275837
 30
0.0
 11
-2.162051685109704
 21
5.702428887275837
 31
0.0
  0
LINE
  5
462
330
70
100
AcDbEntity
  8
Neck Original
 62
     7
420
 16777215
370
    20
100
AcDbLine
 10
-2.194548907331936
 20
5.702428887275837
 30
0.0
 11
-2.382049337887485
 21
5.702428887275837
 31
0.0
  0
LINE
  5
463
330
70
100
AcDbEntity
  8
Neck Original
 62
     7
420
 16777215
370
    20
100
AcDbLine
 10
-2.41205154622082
 20
5.702428887275837
 30
0.0
 11
-2.444549323998592
 21
5.702428887275837
 31
0.0
  0
LINE
  5
464
330
70
100
AcDbEntity
  8
Neck Original
 62
     7
420
 16777215
370
    20
100
AcDbLine
 10
-2.47455154622082
 20
5.702428887275837
 30
0.0
 11
-2.662051685109704
 21
5.702428887275837
 31
0.0
  0
LINE
  5
465
330
70
100
AcDbEntity
  8
Neck Original
 62
     7
420
 16777215
370
    20
100
AcDbLine
 10
-2.694548907331935
 20
5.702428887275837
 30
0.0
 11
-2.724551685109704
 21
5.702428887275837
 31
0.0
  0
LINE
  5
466
330
70
100
AcDbEntity
  8
Neck Original
 62
     7
420
 16777215
370
    20
100
AcDbLine
 10
-2.757048907331935
 20
5.702428887275837
 30
0.0
 11
-2.944548907331935
 21
5.702428887275837
 31
0.0
  0
LINE
  5
467
330
70
100
AcDbEntity
  8
Neck Original
 62
     7
420
 16777215
370
    20
100
AcDbLine
 10
-2.974551685109704
 20
5.702428887275837
 30
0.0
 11
-3.007048907331935
 21
5.702428887275837
 31
0.0
  0
LINE
  5
468
330
70
100
AcDbEntity
  8
Neck Original
 62
     7
420
 16777215
370
    20
100
AcDbLine
 10
-3.037051685109704
 20
5.702428887275837
 30
0.0
 11
-3.224551685109692
 21
5.702428887275837
 31
0.0
  0
LINE
  5
469
330
70
100
AcDbEntity
  8
Neck Original
 62
     7
420
 16777215
370
    20
100
AcDbLine
 10
-3.257048907331935
 20
5.702428887275837
 30
0.0
 11
-3.287051685109692
 21
5.702428887275837
 31
0.0
  0
LINE
  5
46A
330
70
100
AcDbEntity
  8
Neck Original
 62
     7
420
 16777215
370
    20
100
AcDbLine
 10
-3.319548907331935
 20
5.702428887275837
 30
0.0
 11
-3.507048907331935
 21
5.702428887275837
 31
0.0
  0
LINE
  5
46B
330
70
100
AcDbEntity
  8
Neck Original
 62
     7
420
 16777215
370
    20
100
AcDbLine
 10
-3.537051685109692
 20
5.702428887275837
 30
0.0
 11
-3.569548907331935
 21
5.702428887275837
 31
0.0
  0
LINE
  5
46C
330
70
100
AcDbEntity
  8
Neck Original
 62
     7
420
 16777215
370
    20
100
AcDbLine
 10
-3.599551685109692
 20
5.702428887275837
 30
0.0
 11
-3.787051685109692
 21
5.702428887275837
 31
0.0
  0
LINE
  5
46D
330
70
100
AcDbEntity
  8
Neck Original
 62
     7
420
 16777215
370
    20
100
AcDbLine
 10
-3.819548907331935
 20
5.702428887275837
 30
0.0
 11
-3.849551685109692
 21
5.702428887275837
 31
0.0
  0
LINE
  5
46E
330
70
100
AcDbEntity
  8
Neck Original
 62
     7
420
 16777215
370
    20
100
AcDbLine
 10
-3.882048907331935
 20
5.702428887275837
 30
0.0
 11
-4.069548907331935
 21
5.702428887275837
 31
0.0
  0
LINE
  5
46F
330
70
100
AcDbEntity
  8
Neck Original
 62
     7
420
 16777215
370
    20
100
AcDbLine
 10
-4.099551685109692
 20
5.702428887275837
 30
0.0
 11
-4.132048907331935
 21
5.702428887275837
 31
0.0
  0
LINE
  5
470
330
70
100
AcDbEntity
  8
Neck Original
 62
     7
420
 16777215
370
    20
100
AcDbLine
 10
-4.162051685109692
 20
5.702428887275837
 30
0.0
 11
-4.349551685109692
 21
5.702428887275837
 31
0.0
  0
LINE
  5
471
330
70
100
AcDbEntity
  8
Neck Original
 62
     7
420
 16777215
370
    20
100
AcDbLine
 10
-4.382048907331935
 20
5.702428887275837
 30
0.0
 11
-4.412051685109692
 21
5.702428887275837
 31
0.0
  0
LINE
  5
472
330
70
100
AcDbEntity
  8
Neck Original
 62
     7
420
 16777215
370
    20
100
AcDbLine
 10
-4.444548907331935
 20
5.702428887275837
 30
0.0
 11
-4.632048907331935
 21
5.702428887275837
 31
0.0
  0
LINE
  5
473
330
70
100
AcDbEntity
  8
Neck Original
 62
     7
420
 16777215
370
    20
100
AcDbLine
 10
-4.662051685109692
 20
5.702428887275837
 30
0.0
 11
-4.694548907331935
 21
5.702428887275837
 31
0.0
  0
LINE
  5
474
330
70
100
AcDbEntity
  8
Neck Original
 62
     7
420
 16777215
370
    20
100
AcDbLine
 10
-4.724551685109692
 20
5.702428887275837
 30
0.0
 11
-4.912051685109692
 21
5.702428887275837
 31
0.0
  0
LINE
  5
475
330
70
100
AcDbEntity
  8
Neck Original
 62
     7
420
 16777215
370
    20
100
AcDbLine
 10
-4.944548907331935
 20
5.702428887275837
 30
0.0
 11
-4.974551685109692
 21
5.702428887275837
 31
0.0
  0
LINE
  5
476
330
70
100
AcDbEntity
  8
Neck Original
 62
     7
420
 16777215
370
    20
100
AcDbLine
 10
-5.007048907331935
 20
5.702428887275837
 30
0.0
 11
-5.194548907331935
 21
5.702428887275837
 31
0.0
  0
LINE
  5
477
330
70
100
AcDbEntity
  8
Neck Original
 62
     7
420
 16777215
370
    20
100
AcDbLine
 10
-5.224551685109694
 20
5.702428887275837
 30
0.0
 11
-5.257048907331935
 21
5.702428887275837
 31
0.0
  0
LINE
  5
478
330
70
100
AcDbEntity
  8
Neck Original
 62
     7
420
 16777215
370
    20
100
AcDbLine
 10
-5.287051685109694
 20
5.702428887275837
 30
0.0
 11
-5.474551685109694
 21
5.702428887275837
 31
0.0
  0
LINE
  5
479
330
70
100
AcDbEntity
  8
Neck Original
 62
     7
420
 16777215
370
    20
100
AcDbLine
 10
-5.507048907331935
 20
5.702428887275837
 30
0.0
 11
-5.537051685109694
 21
5.702428887275837
 31
0.0
  0
LINE
  5
47A
330
70
100
AcDbEntity
  8
Neck Original
 62
     7
420
 16777215
370
    20
100
AcDbLine
 10
-5.569548907331935
 20
5.702428887275837
 30
0.0
 11
-5.757048907331935
 21
5.702428887275837
 31
0.0
  0
LINE
  5
47B
330
70
100
AcDbEntity
  8
Neck Original
 62
     7
420
 16777215
370
    20
100
AcDbLine
 10
-5.787051685109694
 20
5.702428887275837
 30
0.0
 11
-5.819548907331935
 21
5.702428887275837
 31
0.0
  0
LINE
  5
47C
330
70
100
AcDbEntity
  8
Neck Original
 62
     7
420
 16777215
370
    20
100
AcDbLine
 10
-5.849551685109694
 20
5.702428887275837
 30
0.0
 11
-6.037051685109694
 21
5.702428887275837
 31
0.0
  0
LWPOLYLINE
  5
47D
330
70
100
AcDbEntity
  8
Neck Original
 62
     7
420
 16777215
370
    20
100
AcDbPolyline
 90
       28
 70
     0
 43
0.0
 10
9.270444148223582
 20
5.819928884307536
 10
9.242950798651815
 20
5.817426106592985
 10
9.217953577061077
 20
5.807430273512167
 10
9.195450799851769
 20
5.792428885002246
 10
9.175445244801593
 20
5.772430274396342
 10
9.162939689561955
 20
5.749927497187032
 10
9.15545357863996
 20
5.722428886770593
 10
9.152944148223596
 20
5.694928887465303
 10
9.157949411910244
 20
5.669931756741016
 10
9.167945244991063
 20
5.644927499839555
 10
9.185441077882412
 20
5.6224261115191
 10
9.205448021821439
 20
5.604928889738894
 10
9.23044524341218
 20
5.592430278943512
 10
9.257950798272887
 20
5.58493027913299
 10
9.282949408752479
 20
5.58493027913299
 10
9.310441074724646
 20
5.592430278943512
 10
9.335438296315388
 20
5.604928889738894
 10
9.355445240254415
 20
5.6224261115191
 10
9.372941073145764
 20
5.642431756741022
 10
9.382950795115117
 20
5.669931756741016
 10
9.387942461655686
 20
5.694928887465303
 10
9.385446628385405
 20
5.722428886770593
 10
9.377946628574868
 20
5.749927497187032
 10
9.36544107333523
 20
5.772430274396342
 10
9.345449407173596
 20
5.792428885002246
 10
9.322946629964288
 20
5.807430273512167
 10
9.297949408373547
 20
5.817426106592985
 10
9.270444148223582
 20
5.819928884307536
  0
LWPOLYLINE
  5
47E
330
70
100
AcDbEntity
  8
Neck Original
 62
     7
420
 16777215
370
    20
100
AcDbPolyline
 90
       28
 70
     0
 43
0.0
 10
6.857953636679707
 20
5.819928884307536
 10
6.830448081819013
 20
5.817426106592985
 10
6.805450860228259
 20
5.807430273512167
 10
6.782949471907804
 20
5.792428885002246
 10
6.762942527968792
 20
5.772430274396342
 10
6.750450861617676
 20
5.749927497187032
 10
6.742950861807142
 20
5.722428886770593
 10
6.740441139648322
 20
5.694928887465303
 10
6.745446695077427
 20
5.669931756741016
 10
6.755442528158243
 20
5.644927499839555
 10
6.772938361049596
 20
5.6224261115191
 10
6.792945304988621
 20
5.604928889738894
 10
6.817942526579373
 20
5.592430278943512
 10
6.84544947032892
 20
5.58493027913299
 10
6.870446691919661
 20
5.58493027913299
 10
6.897938357891828
 20
5.592430278943512
 10
6.922949468371107
 20
5.604928889738894
 10
6.942942523421597
 20
5.6224261115191
 10
6.960438356312946
 20
5.642431756741022
 10
6.970449467171156
 20
5.669931756741016
 10
6.975439744822868
 20
5.694928887465303
 10
6.972944148223622
 20
5.722428886770593
 10
6.96544414822361
 20
5.749927497187032
 10
6.95295224539095
 20
5.772430274396342
 10
6.932946690340792
 20
5.792428885002246
 10
6.910444148223622
 20
5.807430273512167
 10
6.885446691540729
 20
5.817426106592985
 10
6.857953636679707
 20
5.819928884307536
  0
LWPOLYLINE
  5
47F
330
70
100
AcDbEntity
  8
Neck Original
 62
     7
420
 16777215
370
    20
100
AcDbPolyline
 90
       28
 70
     0
 43
0.0
 10
4.710438413152727
 20
5.819928884307536
 10
4.682946747180559
 20
5.817426106592985
 10
4.657949525589832
 20
5.807430273512167
 10
4.63544674838051
 20
5.792428885002246
 10
4.615441193330338
 20
5.772430274396342
 10
4.602949526979249
 20
5.749927497187032
 10
4.595449527168702
 20
5.722428886770593
 10
4.59295369389842
 20
5.694928887465303
 10
4.59794414822362
 20
5.669931756741016
 10
4.607953693519488
 20
5.644927499839555
 10
4.625450915299691
 20
5.6224261115191
 10
4.645444148223586
 20
5.604928889738894
 10
4.670453691940605
 20
5.592430278943512
 10
4.697946746801627
 20
5.58493027913299
 10
4.72294414822362
 20
5.58493027913299
 10
4.750450912141926
 20
5.592430278943512
 10
4.775448133732655
 20
5.604928889738894
 10
4.795453688782839
 20
5.6224261115191
 10
4.812950910563045
 20
5.642431756741022
 10
4.822946743643876
 20
5.669931756741016
 10
4.827952299072966
 20
5.694928887465303
 10
4.825442576914144
 20
5.722428886770593
 10
4.817942577103598
 20
5.749927497187032
 10
4.805450910752511
 20
5.772430274396342
 10
4.78544414822362
 20
5.792428885002246
 10
4.762942578493039
 20
5.807430273512167
 10
4.737945356902288
 20
5.817426106592985
 10
4.710438413152727
 20
5.819928884307536
  0
LWPOLYLINE
  5
480
330
70
100
AcDbEntity
  8
Neck Original
 62
     7
420
 16777215
370
    20
100
AcDbPolyline
 90
       28
 70
     0
 43
0.0
 10
2.797949572577386
 20
5.819928884307536
 10
2.770444148223622
 20
5.817426106592985
 10
2.745446796125938
 20
5.807430273512167
 10
2.722944148223622
 20
5.792428885002246
 10
2.702952352754995
 20
5.772430274396342
 10
2.690446797515355
 20
5.749927497187032
 10
2.682946797704821
 20
5.722428886770593
 10
2.680450964434538
 20
5.694928887465303
 10
2.685441242086239
 20
5.669931756741016
 10
2.695450964055607
 20
5.644927499839555
 10
2.712948185835812
 20
5.6224261115191
 10
2.732953740885984
 20
5.604928889738894
 10
2.757950962476724
 20
5.592430278943512
 10
2.785444148223622
 20
5.58493027913299
 10
2.810441238928485
 20
5.58493027913299
 10
2.837948182678045
 20
5.592430278943512
 10
2.862945404268786
 20
5.604928889738894
 10
2.882950959318958
 20
5.6224261115191
 10
2.900448181099164
 20
5.642431756741022
 10
2.910444148223622
 20
5.669931756741016
 10
2.915449569609084
 20
5.694928887465303
 10
2.912939847450251
 20
5.722428886770593
 10
2.905453736528268
 20
5.749927497187032
 10
2.892948181288629
 20
5.772430274396342
 10
2.872941237349603
 20
5.792428885002246
 10
2.850439849029148
 20
5.807430273512167
 10
2.825442627438394
 20
5.817426106592985
 10
2.797949572577386
 20
5.819928884307536
  0
LWPOLYLINE
  5
481
330
70
100
AcDbEntity
  8
Neck Original
 62
     7
420
 16777215
370
    20
100
AcDbPolyline
 90
       28
 70
     0
 43
0.0
 10
-1.787051685109704
 20
5.819928884307536
 10
-1.814558629554157
 20
5.817426106592985
 10
-1.839555851776377
 20
5.807430273512167
 10
-1.862057240665267
 20
5.792428885002246
 10
-1.882048907331936
 20
5.772430274396342
 10
-1.894554462887485
 20
5.749927497187032
 10
-1.902055851776377
 20
5.722428886770593
 10
-1.904550296220826
 20
5.694928887465303
 10
-1.899560018443048
 20
5.669931756741016
 10
-1.889550296220814
 20
5.644927499839555
 10
-1.872053073998608
 20
5.6224261115191
 10
-1.852047518443046
 20
5.604928889738894
 10
-1.827050296220814
 20
5.592430278943512
 10
-1.799557240665267
 20
5.58493027913299
 10
-1.774560018443048
 20
5.58493027913299
 10
-1.747053073998608
 20
5.592430278943512
 10
-1.722055851776377
 20
5.604928889738894
 10
-1.702050296220815
 20
5.6224261115191
 10
-1.684553073998608
 20
5.642431756741022
 10
-1.674557240665267
 20
5.669931756741016
 10
-1.669551685109705
 20
5.694928887465303
 10
-1.672047518443046
 20
5.722428886770593
 10
-1.679548907331938
 20
5.749927497187032
 10
-1.692053073998608
 20
5.772430274396342
 10
-1.712060018443048
 20
5.792428885002246
 10
-1.734547518443045
 20
5.807430273512167
 10
-1.759558629554156
 20
5.817426106592985
 10
-1.787051685109704
 20
5.819928884307536
  0
LWPOLYLINE
  5
482
330
70
100
AcDbEntity
  8
Neck Original
 62
     7
420
 16777215
370
    20
100
AcDbPolyline
 90
       28
 70
     0
 43
0.0
 10
-2.982051685109704
 20
5.819928884307536
 10
-3.009558629554157
 20
5.817426106592985
 10
-3.034555851776375
 20
5.807430273512167
 10
-3.057057240665267
 20
5.792428885002246
 10
-3.077050296220815
 20
5.772430274396342
 10
-3.089555851776377
 20
5.749927497187032
 10
-3.097055851776375
 20
5.722428886770593
 10
-3.099551685109692
 20
5.694928887465303
 10
-3.094546129554156
 20
5.669931756741016
 10
-3.084550296220815
 20
5.644927499839555
 10
-3.067053073998608
 20
5.6224261115191
 10
-3.047047518443045
 20
5.604928889738894
 10
-3.022050296220815
 20
5.592430278943512
 10
-2.994557240665267
 20
5.58493027913299
 10
-2.969546129554156
 20
5.58493027913299
 10
-2.942053073998608
 20
5.592430278943512
 10
-2.917055851776375
 20
5.604928889738894
 10
-2.897050296220815
 20
5.6224261115191
 10
-2.879553073998608
 20
5.642431756741022
 10
-2.869557240665267
 20
5.669931756741016
 10
-2.864553073998596
 20
5.694928887465303
 10
-2.867048907331938
 20
5.722428886770593
 10
-2.874548907331937
 20
5.749927497187032
 10
-2.887054462887485
 20
5.772430274396342
 10
-2.907046129554156
 20
5.792428885002246
 10
-2.929548907331938
 20
5.807430273512167
 10
-2.954558629554157
 20
5.817426106592985
 10
-2.982051685109704
 20
5.819928884307536
  0
LWPOLYLINE
  5
483
330
70
100
AcDbEntity
  8
Neck Original
 62
     7
420
 16777215
370
    20
100
AcDbPolyline
 90
       28
 70
     0
 43
0.0
 10
-4.054548907331938
 20
5.819928884307536
 10
-4.082054462887485
 20
5.817426106592985
 10
-4.107051685109705
 20
5.807430273512167
 10
-4.129553073998606
 20
5.792428885002246
 10
-4.149560018443049
 20
5.772430274396342
 10
-4.162051685109692
 20
5.749927497187032
 10
-4.169551685109705
 20
5.722428886770593
 10
-4.172047518443045
 20
5.694928887465303
 10
-4.167055851776376
 20
5.669931756741016
 10
-4.157046129554155
 20
5.644927499839555
 10
-4.139550296220814
 20
5.6224261115191
 10
-4.119557240665265
 20
5.604928889738894
 10
-4.094546129554155
 20
5.592430278943512
 10
-4.067053073998606
 20
5.58493027913299
 10
-4.042055851776376
 20
5.58493027913299
 10
-4.014550296220814
 20
5.592430278943512
 10
-3.989553073998596
 20
5.604928889738894
 10
-3.969546129554155
 20
5.6224261115191
 10
-3.952050296220814
 20
5.642431756741022
 10
-3.942053073998606
 20
5.669931756741016
 10
-3.937048907331936
 20
5.694928887465303
 10
-3.939558629554158
 20
5.722428886770593
 10
-3.947058629554158
 20
5.749927497187032
 10
-3.959550296220815
 20
5.772430274396342
 10
-3.979555851776376
 20
5.792428885002246
 10
-4.002058629554158
 20
5.807430273512167
 10
-4.027055851776377
 20
5.817426106592985
 10
-4.054548907331938
 20
5.819928884307536
  0
LWPOLYLINE
  5
484
330
70
100
AcDbEntity
  8
Neck Original
 62
     7
420
 16777215
370
    20
100
AcDbPolyline
 90
       28
 70
     0
 43
0.0
 10
-5.012054462887486
 20
5.819928884307536
 10
-5.039547518443046
 20
5.817426106592985
 10
-5.064558629554157
 20
5.807430273512167
 10
-5.087060018443048
 20
5.792428885002246
 10
-5.107051685109705
 20
5.772430274396342
 10
-5.119557240665266
 20
5.749927497187032
 10
-5.127058629554157
 20
5.722428886770593
 10
-5.129553073998607
 20
5.694928887465303
 10
-5.124548907331937
 20
5.669931756741016
 10
-5.114553073998596
 20
5.644927499839555
 10
-5.097055851776376
 20
5.6224261115191
 10
-5.077050296220814
 20
5.604928889738894
 10
-5.052053073998596
 20
5.592430278943512
 10
-5.024560018443048
 20
5.58493027913299
 10
-4.999548907331937
 20
5.58493027913299
 10
-4.972055851776376
 20
5.592430278943512
 10
-4.947058629554157
 20
5.604928889738894
 10
-4.927053073998596
 20
5.6224261115191
 10
-4.909555851776376
 20
5.642431756741022
 10
-4.899560018443048
 20
5.669931756741016
 10
-4.894554462887485
 20
5.694928887465303
 10
-4.897050296220815
 20
5.722428886770593
 10
-4.904550296220826
 20
5.749927497187032
 10
-4.917055851776376
 20
5.772430274396342
 10
-4.937048907331937
 20
5.792428885002246
 10
-4.959550296220815
 20
5.807430273512167
 10
-4.984547518443046
 20
5.817426106592985
 10
-5.012054462887486
 20
5.819928884307536
  0
LWPOLYLINE
  5
485
330
70
100
AcDbEntity
  8
Neck Original
 62
     7
420
 16777215
370
    20
100
AcDbPolyline
 90
       28
 70
     0
 43
0.0
 10
0.3129510242426203
 20
6.34243025999693
 10
0.2854441482236227
 20
6.339927482282378
 10
0.2604468589023199
 20
6.329931756741022
 10
0.237945470581864
 20
6.314930260691639
 10
0.2179538044202296
 20
6.294931756741017
 10
0.2054482491805905
 20
6.27243026176528
 10
0.1979468604812027
 20
6.244930262459988
 10
0.19545102721092
 20
6.217430263154697
 10
0.2004426937514863
 20
6.192426097119687
 10
0.2104524157208418
 20
6.167428875528949
 10
0.2279496375010463
 20
6.144927487208493
 10
0.2479413036626816
 20
6.127430265428287
 10
0.272952414141959
 20
6.114931756741029
 10
0.3004454690029812
 20
6.107431756741016
 10
0.3254426905937207
 20
6.107431756741016
 10
0.3529496343432807
 20
6.114931756741029
 10
0.3779468559340202
 20
6.127430265428287
 10
0.3979524109841934
 20
6.144927487208493
 10
0.415449632764398
 20
6.164933042258666
 10
0.4254454658452156
 20
6.192426097119687
 10
0.4304510212743207
 20
6.217430263154697
 10
0.4279412991154992
 20
6.244930262459988
 10
0.4204412993049651
 20
6.27243026176528
 10
0.4079496329538639
 20
6.294931756741017
 10
0.3879426890148378
 20
6.314930260691639
 10
0.365441300694382
 20
6.329931756741022
 10
0.3404441482236233
 20
6.339927482282378
 10
0.3129510242426203
 20
6.34243025999693
  0
LWPOLYLINE
  5
486
330
70
100
AcDbEntity
  8
Neck Original
 62
     7
420
 16777215
370
    20
100
AcDbPolyline
 90
       28
 70
     0
 43
0.0
 10
0.3129510242426203
 20
5.297427508618143
 10
0.2854441482236227
 20
5.294931756741016
 10
0.2604468589023199
 20
5.284928897822762
 10
0.237945470581864
 20
5.269927509312852
 10
0.2179538044202296
 20
5.249927509818094
 10
0.2054482491805905
 20
5.227433065941908
 10
0.1979468604812027
 20
5.199926122192346
 10
0.19545102721092
 20
5.172427511775909
 10
0.2004426937514863
 20
5.14743029018517
 10
0.2104524157208418
 20
5.122426124150162
 10
0.2279496375010463
 20
5.09993029138512
 10
0.2479413036626816
 20
5.0824275140495
 10
0.272952414141959
 20
5.069928903254131
 10
0.3004454690029812
 20
5.062427514554743
 10
0.3254426905937207
 20
5.062427514554743
 10
0.3529496343432807
 20
5.069928903254131
 10
0.3779468559340202
 20
5.0824275140495
 10
0.3979524109841934
 20
5.09993029138512
 10
0.415449632764398
 20
5.119930290879878
 10
0.4254454658452156
 20
5.14743029018517
 10
0.4304510212743207
 20
5.172427511775909
 10
0.4279412991154992
 20
5.199926122192346
 10
0.4204412993049651
 20
5.227433065941908
 10
0.4079496329538639
 20
5.249927509818094
 10
0.3879426890148378
 20
5.269927509312852
 10
0.365441300694382
 20
5.284928897822762
 10
0.3404441482236233
 20
5.294931756741016
 10
0.3129510242426203
 20
5.297427508618143
  0
LWPOLYLINE
  5
499
330
70
100
AcDbEntity
  8
Neck Trace
 62
     7
420
 16777215
370
    20
100
AcDbPolyline
 90
       11
 70
     0
 43
0.0
 10
-5.512054462887486
 20
6.814930248060576
 10
-5.549557240665266
 20
6.812427470346024
 10
-5.589555851776377
 20
6.802431756741029
 10
-5.624548907331937
 20
6.789933026469838
 10
-5.659555851776376
 20
6.767431756741022
 10
-5.689558629554157
 20
6.742427472114373
 10
-5.717050296220826
 20
6.712431756741023
 10
-5.737057240665266
 20
6.679927473693256
 10
-5.752058629554157
 20
6.642431756741022
 10
-5.762054462887486
 20
6.604928864476768
 10
-5.764550296220814
 20
6.564930254376121
  0
LINE
  5
49A
330
70
100
AcDbEntity
  8
Neck Trace
 62
     7
420
 16777215
370
    20
100
AcDbLine
 10
-5.764550296220814
 20
6.564930254376121
 30
0.0
 11
-5.764550296220814
 21
4.837431756741035
 31
0.0
  0
LWPOLYLINE
  5
49B
330
70
100
AcDbEntity
  8
Neck Trace
 62
     7
420
 16777215
370
    20
100
AcDbPolyline
 90
       11
 70
     0
 43
0.0
 10
-5.764550296220814
 20
4.837431756741035
 10
-5.762054462887486
 20
4.797427521249206
 10
-5.752058629554157
 20
4.759931756741011
 10
-5.737057240665266
 20
4.722428912032718
 10
-5.717050296220826
 20
4.689930301742593
 10
-5.689558629554157
 20
4.659928913611602
 10
-5.659555851776376
 20
4.634931756741011
 10
-5.624548907331937
 20
4.612428914811554
 10
-5.589555851776377
 20
4.599930304016184
 10
-5.549557240665266
 20
4.589927526491097
 10
-5.512054462887486
 20
4.587431756741035
  0
LINE
  5
49C
330
70
100
AcDbEntity
  8
Neck Original
 62
     7
420
 16777215
370
    20
100
AcDbLine
 10
12.80294137044582
 20
4.892431756741023
 30
0.0
 11
12.80294137044582
 21
6.517431756741022
 31
0.0
  0
LINE
  5
4A7
330
70
100
AcDbEntity
  8
Neck Trace
 62
     7
420
 16777215
370
    20
100
AcDbLine
 10
12.6829469260014
 20
4.877430297005943
 30
0.0
 11
12.6829469260014
 21
6.517431756741023
 31
0.0
  0
LINE
  5
4A8
330
70
100
AcDbEntity
  8
Neck Trace
 62
     7
420
 16777215
370
    20
100
AcDbLine
 10
12.80294137044582
 20
4.877430297005943
 30
0.0
 11
12.80294137044582
 21
6.517431756741023
 31
0.0
  0
LINE
  5
4AB
330
70
100
AcDbEntity
  8
Neck Original
 62
     7
420
 16777215
370
    20
100
AcDbLine
 10
-5.509558629554157
 20
6.814930248060576
 30
0.0
 11
12.6829469260014
 21
6.517431756741022
 31
0.0
  0
LINE
  5
4AC
330
70
100
AcDbEntity
  8
Neck Original
 62
     7
420
 16777215
370
    20
100
AcDbLine
 10
-5.509558629554157
 20
4.587431756741035
 30
0.0
 11
12.6829469260014
 21
4.877430297005943
 31
0.0
  0
LWPOLYLINE
  5
4AD
330
70
100
AcDbEntity
  8
Neck Trace
 62
     7
420
 16777215
370
    20
100
AcDbPolyline
 90
      165
 70
     0
 43
0.0
 10
12.99295109266806
 20
5.707427498260672
 10
12.99295109266806
 20
5.717430275785758
 10
12.9954469260014
 20
5.727433053310845
 10
12.99794137044583
 20
5.734927497565964
 10
13.00045109266807
 20
5.74493027509105
 10
13.00294692600141
 20
5.752430274901584
 10
13.0054427593347
 20
5.762426107982401
 10
13.01044692600137
 20
5.772430274396342
 10
13.01545248155695
 20
5.779930274206876
 10
13.02293859266807
 20
5.78743027401741
 10
13.03045387044583
 20
5.797427495987081
 10
13.0354441482236
 20
5.804927495797615
 10
13.04294553711247
 20
5.809926106782451
 10
13.05294137044582
 20
5.819928884307536
 10
13.06044137044583
 20
5.827428884118071
 10
13.07045109266808
 20
5.832427495102907
 10
13.08044831489029
 20
5.837431756741023
 10
13.09044414822359
 20
5.844933050342546
 10
13.10043998155695
 20
5.852433050153067
 10
13.11044970377914
 20
5.857431756741016
 10
13.12294137044583
 20
5.859927494408198
 10
13.13544692600137
 20
5.864931756741029
 10
13.14793859266807
 20
5.869930271933284
 10
13.1604441482236
 20
5.874927494029266
 10
13.16794553711247
 20
5.877430271743818
 10
13.17544553711248
 20
5.879926105014101
 10
13.18045109266806
 20
5.882428882728653
 10
13.18544137044584
 20
5.882428882728653
 10
13.1929427593347
 20
5.882428882728653
 10
13.20044275933471
 20
5.882428882728653
 10
13.20794414822358
 20
5.884931756741011
 10
13.21544414822359
 20
5.887426104824635
 10
13.2229441482236
 20
5.887426104824635
 10
13.23044553711247
 20
5.887426104824635
 10
13.23794553711248
 20
5.889928882539189
 10
13.24295109266806
 20
5.889928882539189
 10
13.25045109266807
 20
5.889928882539189
 10
13.26044692600137
 20
5.892431756741022
 10
13.26545248155695
 20
5.892431756741022
 10
13.27293859266807
 20
5.892431756741022
 10
13.28294970377917
 20
5.892431756741022
 10
13.29044970377918
 20
5.892431756741022
 10
13.29545387044585
 20
5.892431756741022
 10
13.30545109266806
 20
5.892431756741022
 10
13.31295109266807
 20
5.892431756741022
 10
13.31794275933475
 20
5.892431756741022
 10
13.32795248155695
 20
5.889928882539189
 10
13.33543859266807
 20
5.889928882539189
 10
13.34044414822359
 20
5.889928882539189
 10
13.3479441482236
 20
5.887426104824635
 10
13.35544553711247
 20
5.887426104824635
 10
13.36294553711248
 20
5.887426104824635
 10
13.3704469260014
 20
5.884931756741011
 10
13.37794692600136
 20
5.882428882728653
 10
13.38544692600137
 20
5.882428882728653
 10
13.39294831489029
 20
5.882428882728653
 10
13.39793859266807
 20
5.882428882728653
 10
13.40545387044582
 20
5.879926105014101
 10
13.4104441482236
 20
5.877430271743818
 10
13.41794553711247
 20
5.874927494029266
 10
13.43045109266806
 20
5.869930271933284
 10
13.4429427593347
 20
5.864931756741029
 10
13.45544831489029
 20
5.859927494408198
 10
13.46795387044582
 20
5.857431756741016
 10
13.47794970377918
 20
5.852433050153067
 10
13.48794553711248
 20
5.844933050342546
 10
13.49794137044584
 20
5.837431756741023
 10
13.50795109266808
 20
5.832427495102907
 10
13.51794831489029
 20
5.827428884118071
 10
13.52544831489025
 20
5.819928884307536
 10
13.5354441482236
 20
5.809926106782451
 10
13.54294553711247
 20
5.804927495797615
 10
13.54794970377914
 20
5.797427495987081
 10
13.55545109266806
 20
5.78743027401741
 10
13.56295109266807
 20
5.779930274206876
 10
13.56794275933475
 20
5.772430274396342
 10
13.57294692600137
 20
5.762426107982401
 10
13.57544275933471
 20
5.752430274901584
 10
13.57795248155695
 20
5.74493027509105
 10
13.58044831489029
 20
5.734927497565964
 10
13.58294414822358
 20
5.727433053310845
 10
13.58543859266807
 20
5.717430275785758
 10
13.58543859266807
 20
5.707427498260672
 10
13.58543859266807
 20
5.699926109561284
 10
13.58294414822363
 20
5.689930276480467
 10
13.58044831489029
 20
5.679927498955381
 10
13.57795248155695
 20
5.672427499144847
 10
13.57544275933471
 20
5.662430277175175
 10
13.57294692600137
 20
5.652427499650088
 10
13.5679427593347
 20
5.644927499839555
 10
13.56295109266807
 20
5.637426111140168
 10
13.55545109266806
 20
5.62743027805935
 10
13.54794970377914
 20
5.6224261115191
 10
13.54294553711247
 20
5.612428889549428
 10
13.5354441482236
 20
5.604928889738894
 10
13.52544831489025
 20
5.59742888992836
 10
13.51794831489029
 20
5.592430278943512
 10
13.50795109266803
 20
5.58493027913299
 10
13.49794137044584
 20
5.577428890433603
 10
13.48794553711248
 20
5.572431756741011
 10
13.47794970377918
 20
5.567426112908515
 10
13.46795387044582
 20
5.559926113097981
 10
13.45544831489029
 20
5.554927502113146
 10
13.4429427593347
 20
5.549928891128311
 10
13.43045109266806
 20
5.544931756741016
 10
13.41794553711252
 20
5.542428891317776
 10
13.4104441482236
 20
5.539933058047494
 10
13.40545387044582
 20
5.537430280332928
 10
13.39793859266807
 20
5.537430280332928
 10
13.39294831489029
 20
5.534928891507243
 10
13.38544692600137
 20
5.532433058236961
 10
13.37794692600141
 20
5.532433058236961
 10
13.3704469260014
 20
5.529930280522407
 10
13.36294553711248
 20
5.529930280522407
 10
13.35544553711252
 20
5.527427502807855
 10
13.3479441482236
 20
5.527427502807855
 10
13.34044414822359
 20
5.524931756741023
 10
13.33543859266807
 20
5.524931756741023
 10
13.32795248155695
 20
5.524931756741023
 10
13.31794275933475
 20
5.524931756741023
 10
13.31295109266807
 20
5.522430280711873
 10
13.30545109266806
 20
5.522430280711873
 10
13.29545387044585
 20
5.522430280711873
 10
13.29044970377918
 20
5.522430280711873
 10
13.28294970377917
 20
5.522430280711873
 10
13.27293859266807
 20
5.522430280711873
 10
13.26545248155695
 20
5.522430280711873
 10
13.26044692600137
 20
5.524931756741023
 10
13.25045109266807
 20
5.524931756741023
 10
13.24295109266806
 20
5.524931756741023
 10
13.23794553711248
 20
5.524931756741023
 10
13.23044553711252
 20
5.527427502807855
 10
13.2229441482236
 20
5.527427502807855
 10
13.21544414822359
 20
5.529930280522407
 10
13.20794414822358
 20
5.529930280522407
 10
13.20044275933471
 20
5.532433058236961
 10
13.1929427593347
 20
5.532433058236961
 10
13.18544137044584
 20
5.534928891507243
 10
13.18045109266806
 20
5.537430280332928
 10
13.17544553711248
 20
5.537430280332928
 10
13.16794553711252
 20
5.539933058047494
 10
13.1604441482236
 20
5.542428891317776
 10
13.14793859266807
 20
5.544931756741016
 10
13.13544692600137
 20
5.549928891128311
 10
13.12294137044583
 20
5.554927502113146
 10
13.11044970377914
 20
5.559926113097981
 10
13.10043998155695
 20
5.567426112908515
 10
13.09044414822359
 20
5.572431756741011
 10
13.08044831489029
 20
5.577428890433603
 10
13.07045109266803
 20
5.58493027913299
 10
13.06044137044583
 20
5.592430278943512
 10
13.05294137044582
 20
5.59742888992836
 10
13.04294553711252
 20
5.604928889738894
 10
13.0354441482236
 20
5.612428889549428
 10
13.03045387044583
 20
5.6224261115191
 10
13.02293859266807
 20
5.62743027805935
 10
13.01545248155695
 20
5.637426111140168
 10
13.01044692600137
 20
5.644927499839555
 10
13.0054427593347
 20
5.652427499650088
 10
13.00294692600141
 20
5.662430277175175
 10
13.00045109266807
 20
5.672427499144847
 10
12.99794137044583
 20
5.679927498955381
 10
12.9954469260014
 20
5.689930276480467
 10
12.99295109266806
 20
5.699926109561284
 10
12.99295109266806
 20
5.707427498260672
  0
LWPOLYLINE
  5
4B5
330
70
100
AcDbEntity
  8
Neck Original
 62
     7
420
 16777215
370
    20
100
AcDbPolyline
 90
        2
 70
     0
 43
0.0
 10
12.6829469260014
 20
4.877430297005943
 10
12.6829469260014
 20
6.517431756741022
  0
LINE
  5
4B8
330
70
100
AcDbEntity
  8
Neck Trace
100
AcDbLine
 10
-6.037051685109694
 20
6.952428887275837
 30
0.0
 11
-6.037051685109694
 21
4.452428887275837
 31
0.0
  0
LINE
  5
4B9
330
70
100
AcDbEntity
  8
Neck Trace
100
AcDbLine
 10
-6.037051685109694
 20
4.452428887275837
 30
0.0
 11
13.9629483148903
 21
4.452428887275837
 31
0.0
  0
LINE
  5
4BA
330
70
100
AcDbEntity
  8
Neck Trace
100
AcDbLine
 10
13.9629483148903
 20
4.452428887275837
 30
0.0
 11
13.9629483148903
 21
6.952428887275837
 31
0.0
  0
LINE
  5
4BB
330
70
100
AcDbEntity
  8
Neck Trace
100
AcDbLine
 10
13.9629483148903
 20
6.952428887275837
 30
0.0
 11
-6.037051685109694
 21
6.952428887275839
 31
0.0
  0
CIRCLE
  5
4C8
330
70
100
AcDbEntity
  8
Neck Trace
100
AcDbCircle
 10
11.98786596805018
 20
5.702428887275837
 30
0.0
 40
0.125
  0
CIRCLE
  5
4C9
330
70
100
AcDbEntity
  8
Neck Trace
100
AcDbCircle
 10
2.80090595717973
 20
5.702428887275837
 30
0.0
 40
0.125
  0
CIRCLE
  5
4CA
330
70
100
AcDbEntity
  8
Neck Trace
100
AcDbCircle
 10
-5.551255190118416
 20
5.702428887275837
 30
0.0
 40
0.125
  0
LINE
  5
4D9
330
70
100
AcDbEntity
  8
Neck Trace
100
AcDbLine
 10
12.6829469260014
 20
6.517431756741023
 30
0.0
 11
12.80294137044582
 21
6.517431756741022
 31
0.0
  0
LINE
  5
4DA
330
70
100
AcDbEntity
  8
Neck Trace
100
AcDbLine
 10
12.6829469260014
 20
4.877430297005943
 30
0.0
 11
12.80294137044582
 21
4.877430297005943
 31
0.0
  0
ENDSEC
  0
SECTION
  2
OBJECTS
  0
DICTIONARY
  5
C
330
0
100
AcDbDictionary
281
     1
  3
ACAD_CIP_PREVIOUS_PRODUCT_INFO
350
1E5
  3
ACAD_COLOR
350
63
  3
ACAD_DETAILVIEWSTYLE
350
6A
  3
ACAD_GROUP
350
D
  3
ACAD_LAYOUT
350
62
  3
ACAD_MATERIAL
350
10
  3
ACAD_MLEADERSTYLE
350
66
  3
ACAD_MLINESTYLE
350
5F
  3
ACAD_PLOTSETTINGS
350
61
  3
ACAD_PLOTSTYLENAME
350
E
  3
ACAD_SCALELIST
350
42
  3
ACAD_SECTIONVIEWSTYLE
350
68
  3
ACAD_TABLESTYLE
350
64
  3
ACAD_VISUALSTYLE
350
29
  3
ACDB_RECOMPOSE_DATA
350
4DC
  3
AcDbVariableDictionary
350
1D8
  0
DICTIONARY
  5
4CF
330
2
100
AcDbDictionary
280
     1
281
     1
  3
ACAD_LAYERSTATES
360
4D0
  0
DICTIONARY
  5
4B6
330
70
100
AcDbDictionary
280
     1
281
     1
  3
ACAD_SORTENTS
360
4B7
  0
XRECORD
  5
1E5
102
{ACAD_REACTORS
330
C
102
}
330
C
100
AcDbXrecord
280
     1
300
ACD
300
2023
300

  0
DICTIONARY
  5
63
102
{ACAD_REACTORS
330
C
102
}
330
C
100
AcDbDictionary
281
     1
  0
DICTIONARY
  5
6A
102
{ACAD_REACTORS
330
C
102
}
330
C
100
AcDbDictionary
281
     1
  3
Imperial24
350
6B
  0
DICTIONARY
  5
D
102
{ACAD_REACTORS
330
C
102
}
330
C
100
AcDbDictionary
281
     1
  0
DICTIONARY
  5
62
102
{ACAD_REACTORS
330
C
102
}
330
C
100
AcDbDictionary
281
     1
  3
Layout1
350
6F
  3
Layout2
350
77
  3
Model
350
73
  0
DICTIONARY
  5
10
102
{ACAD_REACTORS
330
C
102
}
330
C
100
AcDbDictionary
281
     1
  3
ByBlock
350
19
  3
ByLayer
350
11
  3
Global
350
21
  0
DICTIONARY
  5
66
102
{ACAD_REACTORS
330
C
102
}
330
C
100
AcDbDictionary
281
     1
  3
Standard
350
67
  0
DICTIONARY
  5
5F
102
{ACAD_REACTORS
330
C
102
}
330
C
100
AcDbDictionary
281
     1
  3
Standard
350
60
  0
DICTIONARY
  5
61
102
{ACAD_REACTORS
330
C
102
}
330
C
100
AcDbDictionary
281
     1
  0
ACDBDICTIONARYWDFLT
  5
E
102
{ACAD_REACTORS
330
C
102
}
330
C
100
AcDbDictionary
281
     1
  3
Normal
350
F
100
AcDbDictionaryWithDefault
340
F
  0
DICTIONARY
  5
42
102
{ACAD_REACTORS
330
C
102
}
330
C
100
AcDbDictionary
281
     1
  3
A0
350
43
  3
A1
350
44
  3
A2
350
45
  3
A3
350
46
  3
A4
350
47
  3
A5
350
48
  3
A6
350
49
  3
A7
350
4A
  3
A8
350
4B
  3
A9
350
4C
  3
B0
350
4D
  3
B1
350
4E
  3
B2
350
4F
  3
B3
350
50
  3
B4
350
51
  3
B5
350
52
  3
B6
350
53
  0
DICTIONARY
  5
68
102
{ACAD_REACTORS
330
C
102
}
330
C
100
AcDbDictionary
281
     1
  3
Imperial24
350
69
  0
DICTIONARY
  5
64
102
{ACAD_REACTORS
330
C
102
}
330
C
100
AcDbDictionary
281
     1
  3
Standard
350
65
  0
DICTIONARY
  5
29
102
{ACAD_REACTORS
330
C
102
}
330
C
100
AcDbDictionary
281
     1
  3
2dWireframe
350
2F
  3
Basic
350
2E
  3
Brighten
350
35
  3
ColorChange
350
39
  3
Conceptual
350
32
  3
Dim
350
34
  3
EdgeColorOff
350
41
  3
Facepattern
350
38
  3
Flat
350
2A
  3
FlatWithEdges
350
2B
  3
Gouraud
350
2C
  3
GouraudWithEdges
350
2D
  3
Hidden
350
31
  3
JitterOff
350
3F
  3
Linepattern
350
37
  3
OverhangOff
350
40
  3
Realistic
350
33
  3
Shaded
350
3E
  3
Shaded with edges
350
3D
  3
Shades of Gray
350
3A
  3
Sketchy
350
3B
  3
Thicken
350
36
  3
Wireframe
350
30
  3
X-Ray
350
3C
  0
XRECORD
  5
4DC
102
{ACAD_REACTORS
330
C
102
}
330
C
100
AcDbXrecord
280
     1
 90
        1
330
65
  0
DICTIONARY
  5
1D8
102
{ACAD_REACTORS
330
C
102
}
330
C
100
AcDbDictionary
281
     1
  3
CANNOSCALE
350
1DD
  3
CMLEADERSTYLE
350
1DA
  3
CTABLESTYLE
350
1D9
  3
CVIEWDETAILSTYLE
350
1DB
  3
CVIEWSECTIONSTYLE
350
1DC
  0
DICTIONARY
  5
4D0
102
{ACAD_REACTORS
330
4CF
102
}
330
4CF
100
AcDbDictionary
281
     1
  0
SORTENTSTABLE
  5
4B7
102
{ACAD_REACTORS
330
4B6
102
}
330
4B6
100
AcDbSortentsTable
330
70
331
4A7
  5
4A8
331
4A8
  5
4AB
331
4AB
  5
4AC
331
4AC
  5
4AD
331
4AD
  5
4B5
331
4B5
  5
4A7
  0
ACDBDETAILVIEWSTYLE
  5
6B
102
{ACAD_REACTORS
330
6A
102
}
330
6A
100
AcDbModelDocViewStyle
 70
     0
  3
Imperial24
290
     0
300
Imperial24
 90
        0
100
AcDbDetailViewStyle
 70
     0
 71
     0
 90
        3
 71
     1
340
55
 62
   256
 40
0.24
340
0
 62
   256
 40
0.24
300

 40
0.36
280
     3
 71
     2
340
5D
 90
       25
 62
   256
 71
     3
340
55
 62
   256
 40
0.24
 90
        1
 40
0.75
 90
        1
300
%<\AcVar ViewType \f "%tc1">% %<\AcVar ViewDetailId>%\PSCALE %<\AcVar ViewScale \f "%sn">%
 71
     4
340
5D
 90
       25
 62
   256
340
5D
 90
       25
 62
   256
280
     0
  0
LAYOUT
  5
6F
102
{ACAD_REACTORS
330
62
102
}
330
62
100
AcDbPlotSettings
  1

  2

  4

  6

 40
0.0
 41
0.0
 42
0.0
 43
0.0
 44
0.0
 45
0.0
 46
0.0
 47
0.0
 48
0.0
 49
0.0
140
0.0
141
0.0
142
1.0
143
1.0
 70
   688
 72
     0
 73
     0
 74
     5
  7

 75
    16
147
1.0
 76
     0
 77
     2
 78
   300
148
0.0
149
0.0
100
AcDbLayout
  1
Layout1
 70
     1
 71
     1
 10
0.0
 20
0.0
 11
12.0
 21
9.0
 12
0.0
 22
0.0
 32
0.0
 14
1.000000000000000E+20
 24
1.000000000000000E+20
 34
1.000000000000000E+20
 15
-1.000000000000000E+20
 25
-1.000000000000000E+20
 35
-1.000000000000000E+20
146
0.0
 13
0.0
 23
0.0
 33
0.0
 16
1.0
 26
0.0
 36
0.0
 17
0.0
 27
1.0
 37
0.0
 76
     0
330
6C
  0
LAYOUT
  5
77
102
{ACAD_REACTORS
330
62
102
}
330
62
100
AcDbPlotSettings
  1

  2

  4

  6

 40
0.0
 41
0.0
 42
0.0
 43
0.0
 44
0.0
 45
0.0
 46
0.0
 47
0.0
 48
0.0
 49
0.0
140
0.0
141
0.0
142
1.0
143
1.0
 70
   688
 72
     0
 73
     0
 74
     5
  7

 75
    16
147
1.0
 76
     0
 77
     2
 78
   300
148
0.0
149
0.0
100
AcDbLayout
  1
Layout2
 70
     1
 71
     2
 10
0.0
 20
0.0
 11
12.0
 21
9.0
 12
0.0
 22
0.0
 32
0.0
 14
0.0
 24
0.0
 34
0.0
 15
0.0
 25
0.0
 35
0.0
146
0.0
 13
0.0
 23
0.0
 33
0.0
 16
1.0
 26
0.0
 36
0.0
 17
0.0
 27
1.0
 37
0.0
 76
     0
330
74
  0
LAYOUT
  5
73
102
{ACAD_REACTORS
330
62
102
}
330
62
100
AcDbPlotSettings
  1

  2

  4

  6

 40
0.0
 41
0.0
 42
0.0
 43
0.0
 44
0.0
 45
0.0
 46
0.0
 47
0.0
 48
0.0
 49
0.0
140
0.0
141
0.0
142
1.0
143
1.0
 70
  1712
 72
     0
 73
     0
 74
     0
  7

 75
     0
147
1.0
 76
     0
 77
     2
 78
   300
148
0.0
149
0.0
100
AcDbLayout
  1
Model
 70
     1
 71
     0
 10
0.0
 20
0.0
 11
12.0
 21
9.0
 12
0.0
 22
0.0
 32
0.0
 14
0.0
 24
0.0
 34
0.0
 15
0.0
 25
0.0
 35
0.0
146
0.0
 13
0.0
 23
0.0
 33
0.0
 16
1.0
 26
0.0
 36
0.0
 17
0.0
 27
1.0
 37
0.0
 76
     0
330
70
331
57
  0
MATERIAL
  5
19
102
{ACAD_XDICTIONARY
360
1A
102
}
102
{ACAD_REACTORS
330
10
102
}
330
10
100
AcDbMaterial
  1
ByBlock
 72
     0
 43
0.0208333333333333
 43
0.0
 43
0.0
 43
0.0
 43
0.0
 43
0.0208333333333333
 43
0.0
 43
0.0
 43
0.0
 43
0.0
 43
1.0
 43
0.0
 43
0.0
 43
0.0
 43
0.0
 43
1.0
 77
     0
 47
0.0208333333333333
 47
0.0
 47
0.0
 47
0.0
 47
0.0
 47
0.0208333333333333
 47
0.0
 47
0.0
 47
0.0
 47
0.0
 47
1.0
 47
0.0
 47
0.0
 47
0.0
 47
0.0
 47
1.0
171
     0
 49
0.0208333333333333
 49
0.0
 49
0.0
 49
0.0
 49
0.0
 49
0.0208333333333333
 49
0.0
 49
0.0
 49
0.0
 49
0.0
 49
1.0
 49
0.0
 49
0.0
 49
0.0
 49
0.0
 49
1.0
175
     0
142
0.0208333333333333
142
0.0
142
0.0
142
0.0
142
0.0
142
0.0208333333333333
142
0.0
142
0.0
142
0.0
142
0.0
142
1.0
142
0.0
142
0.0
142
0.0
142
0.0
142
1.0
179
     0
144
0.0208333333333333
144
0.0
144
0.0
144
0.0
144
0.0
144
0.0208333333333333
144
0.0
144
0.0
144
0.0
144
0.0
144
1.0
144
0.0
144
0.0
144
0.0
144
0.0
144
1.0
147
0.0208333333333333
147
0.0
147
0.0
147
0.0
147
0.0
147
0.0208333333333333
147
0.0
147
0.0
147
0.0
147
0.0
147
1.0
147
0.0
147
0.0
147
0.0
147
0.0
147
1.0
  0
MATERIAL
  5
11
102
{ACAD_XDICTIONARY
360
12
102
}
102
{ACAD_REACTORS
330
10
102
}
330
10
100
AcDbMaterial
  1
ByLayer
 72
     0
 43
0.0208333333333333
 43
0.0
 43
0.0
 43
0.0
 43
0.0
 43
0.0208333333333333
 43
0.0
 43
0.0
 43
0.0
 43
0.0
 43
1.0
 43
0.0
 43
0.0
 43
0.0
 43
0.0
 43
1.0
 77
     0
 47
0.0208333333333333
 47
0.0
 47
0.0
 47
0.0
 47
0.0
 47
0.0208333333333333
 47
0.0
 47
0.0
 47
0.0
 47
0.0
 47
1.0
 47
0.0
 47
0.0
 47
0.0
 47
0.0
 47
1.0
171
     0
 49
0.0208333333333333
 49
0.0
 49
0.0
 49
0.0
 49
0.0
 49
0.0208333333333333
 49
0.0
 49
0.0
 49
0.0
 49
0.0
 49
1.0
 49
0.0
 49
0.0
 49
0.0
 49
0.0
 49
1.0
175
     0
142
0.0208333333333333
142
0.0
142
0.0
142
0.0
142
0.0
142
0.0208333333333333
142
0.0
142
0.0
142
0.0
142
0.0
142
1.0
142
0.0
142
0.0
142
0.0
142
0.0
142
1.0
179
     0
144
0.0208333333333333
144
0.0
144
0.0
144
0.0
144
0.0
144
0.0208333333333333
144
0.0
144
0.0
144
0.0
144
0.0
144
1.0
144
0.0
144
0.0
144
0.0
144
0.0
144
1.0
147
0.0208333333333333
147
0.0
147
0.0
147
0.0
147
0.0
147
0.0208333333333333
147
0.0
147
0.0
147
0.0
147
0.0
147
1.0
147
0.0
147
0.0
147
0.0
147
0.0
147
1.0
  0
MATERIAL
  5
21
102
{ACAD_XDICTIONARY
360
22
102
}
102
{ACAD_REACTORS
330
10
102
}
330
10
100
AcDbMaterial
  1
Global
 72
     0
 43
0.0208333333333333
 43
0.0
 43
0.0
 43
0.0
 43
0.0
 43
0.0208333333333333
 43
0.0
 43
0.0
 43
0.0
 43
0.0
 43
1.0
 43
0.0
 43
0.0
 43
0.0
 43
0.0
 43
1.0
 77
     0
 47
0.0208333333333333
 47
0.0
 47
0.0
 47
0.0
 47
0.0
 47
0.0208333333333333
 47
0.0
 47
0.0
 47
0.0
 47
0.0
 47
1.0
 47
0.0
 47
0.0
 47
0.0
 47
0.0
 47
1.0
171
     0
 49
0.0208333333333333
 49
0.0
 49
0.0
 49
0.0
 49
0.0
 49
0.0208333333333333
 49
0.0
 49
0.0
 49
0.0
 49
0.0
 49
1.0
 49
0.0
 49
0.0
 49
0.0
 49
0.0
 49
1.0
175
     0
142
0.0208333333333333
142
0.0
142
0.0
142
0.0
142
0.0
142
0.0208333333333333
142
0.0
142
0.0
142
0.0
142
0.0
142
1.0
142
0.0
142
0.0
142
0.0
142
0.0
142
1.0
179
     0
144
0.0208333333333333
144
0.0
144
0.0
144
0.0
144
0.0
144
0.0208333333333333
144
0.0
144
0.0
144
0.0
144
0.0
144
1.0
144
0.0
144
0.0
144
0.0
144
0.0
144
1.0
147
0.0208333333333333
147
0.0
147
0.0
147
0.0
147
0.0
147
0.0208333333333333
147
0.0
147
0.0
147
0.0
147
0.0
147
1.0
147
0.0
147
0.0
147
0.0
147
0.0
147
1.0
  0
MLEADERSTYLE
  5
67
102
{ACAD_REACTORS
330
66
102
}
330
66
100
AcDbMLeaderStyle
179
     2
170
     2
171
     1
172
     0
 90
        2
 40
0.0
 41
0.0
173
     1
 91
-1056964608
340
5B
 92
       -2
290
     1
 42
0.09
291
     1
 43
0.36
  3
Standard
 44
0.18
300

342
55
174
     1
178
     6
175
     1
176
     0
 93
-1056964608
 45
0.18
292
     0
297
     0
 46
0.18
 94
-1056964608
 47
1.0
 49
1.0
140
1.0
293
     1
141
0.0
294
     1
177
     0
142
1.0
295
     0
296
     0
143
0.125
271
     0
272
     9
273
     9
298
     1
  0
MLINESTYLE
  5
60
102
{ACAD_REACTORS
330
5F
102
}
330
5F
100
AcDbMlineStyle
  2
STANDARD
 70
     0
  3

 62
   256
 51
90.0
 52
90.0
 71
     2
 49
0.5
 62
   256
  6
BYLAYER
 49
-0.5
 62
   256
  6
BYLAYER
  0
ACDBPLACEHOLDER
  5
F
102
{ACAD_REACTORS
330
E
102
}
330
E
  0
SCALE
  5
43
102
{ACAD_REACTORS
330
42
102
}
330
42
100
AcDbScale
 70
     0
300
1:1
140
1.0
141
1.0
290
     1
  0
SCALE
  5
44
102
{ACAD_REACTORS
330
42
102
}
330
42
100
AcDbScale
 70
     0
300
1/128" = 1'-0"
140
0.0078125
141
12.0
290
     0
  0
SCALE
  5
45
102
{ACAD_REACTORS
330
42
102
}
330
42
100
AcDbScale
 70
     0
300
1/64" = 1'-0"
140
0.015625
141
12.0
290
     0
  0
SCALE
  5
46
102
{ACAD_REACTORS
330
42
102
}
330
42
100
AcDbScale
 70
     0
300
1/32" = 1'-0"
140
0.03125
141
12.0
290
     0
  0
SCALE
  5
47
102
{ACAD_REACTORS
330
42
102
}
330
42
100
AcDbScale
 70
     0
300
1/16" = 1'-0"
140
0.0625
141
12.0
290
     0
  0
SCALE
  5
48
102
{ACAD_REACTORS
330
42
102
}
330
42
100
AcDbScale
 70
     0
300
3/32" = 1'-0"
140
0.09375
141
12.0
290
     0
  0
SCALE
  5
49
102
{ACAD_REACTORS
330
42
102
}
330
42
100
AcDbScale
 70
     0
300
1/8" = 1'-0"
140
0.125
141
12.0
290
     0
  0
SCALE
  5
4A
102
{ACAD_REACTORS
330
42
102
}
330
42
100
AcDbScale
 70
     0
300
3/16" = 1'-0"
140
0.1875
141
12.0
290
     0
  0
SCALE
  5
4B
102
{ACAD_REACTORS
330
42
102
}
330
42
100
AcDbScale
 70
     0
300
1/4" = 1'-0"
140
0.25
141
12.0
290
     0
  0
SCALE
  5
4C
102
{ACAD_REACTORS
330
42
102
}
330
42
100
AcDbScale
 70
     0
300
3/8" = 1'-0"
140
0.375
141
12.0
290
     0
  0
SCALE
  5
4D
102
{ACAD_REACTORS
330
42
102
}
330
42
100
AcDbScale
 70
     0
300
1/2" = 1'-0"
140
0.5
141
12.0
290
     0
  0
SCALE
  5
4E
102
{ACAD_REACTORS
330
42
102
}
330
42
100
AcDbScale
 70
     0
300
3/4" = 1'-0"
140
0.75
141
12.0
290
     0
  0
SCALE
  5
4F
102
{ACAD_REACTORS
330
42
102
}
330
42
100
AcDbScale
 70
     0
300
1" = 1'-0"
140
1.0
141
12.0
290
     0
  0
SCALE
  5
50
102
{ACAD_REACTORS
330
42
102
}
330
42
100
AcDbScale
 70
     0
300
1-1/2" = 1'-0"
140
1.5
141
12.0
290
     0
  0
SCALE
  5
51
102
{ACAD_REACTORS
330
42
102
}
330
42
100
AcDbScale
 70
     0
300
3" = 1'-0"
140
3.0
141
12.0
290
     0
  0
SCALE
  5
52
102
{ACAD_REACTORS
330
42
102
}
330
42
100
AcDbScale
 70
     0
300
6" = 1'-0"
140
6.0
141
12.0
290
     0
  0
SCALE
  5
53
102
{ACAD_REACTORS
330
42
102
}
330
42
100
AcDbScale
 70
     0
300
1'-0" = 1'-0"
140
12.0
141
12.0
290
     0
  0
ACDBSECTIONVIEWSTYLE
  5
69
102
{ACAD_REACTORS
330
68
102
}
330
68
100
AcDbModelDocViewStyle
 70
     0
  3
Imperial24
290
     0
300
Imperial24
 90
        0
100
AcDbSectionViewStyle
 70
     0
 71
     0
 90
       78
 71
     1
340
55
 62
   256
 40
0.24
340
0
340
0
 62
   256
 40
0.24
300
I, O, Q, S, X, Z
 40
0.48
 90
        3
 40
0.18
 90
        1
 71
     2
340
5D
 90
       25
 62
   256
340
5D
 90
       50
 62
   256
 40
0.24
 40
0.0
 40
0.24
 71
     3
340
55
 62
   256
 40
0.24
 90
        1
 40
0.75
 90
        1
300
%<\AcVar ViewType \f "%tc1">% %<\AcVar ViewSectionStartId>%-%<\AcVar ViewSectionEndId>%\PSCALE %<\AcVar ViewScale \f "%sn">%
 71
     4
 62
   256
 62
   257
300
ANSI31
 40
1.0
 90
        0
290
     0
290
     0
 90
        6
 40
0.0
 40
1.570796326794896
 40
0.2617993877991494
 40
1.308996938995747
 40
-0.2617993877991494
 40
1.832595714594045
  0
TABLESTYLE
  5
65
102
{ACAD_XDICTIONARY
360
1DE
102
}
102
{ACAD_REACTORS
330
64
102
}
330
64
100
AcDbTableStyle
280
     0
  3
Standard
 70
     0
 71
     0
 40
0.06
 41
0.06
280
     0
281
     0
  7
Standard
140
0.18
170
     2
 62
     0
 63
     7
283
     0
 90
      512
 91
        0
  1

274
    -2
284
     1
 64
     0
275
    -2
285
     1
 65
     0
276
    -2
286
     1
 66
     0
277
    -2
287
     1
 67
     0
278
    -2
288
     1
 68
     0
279
    -2
289
     1
 69
     0
  7
Standard
140
0.25
170
     5
 62
     0
 63
     7
283
     0
 90
      512
 91
        0
  1

274
    -2
284
     1
 64
     0
275
    -2
285
     1
 65
     0
276
    -2
286
     1
 66
     0
277
    -2
287
     1
 67
     0
278
    -2
288
     1
 68
     0
279
    -2
289
     1
 69
     0
  7
Standard
140
0.18
170
     5
 62
     0
 63
     7
283
     0
 90
      512
 91
        0
  1

274
    -2
284
     1
 64
     0
275
    -2
285
     1
 65
     0
276
    -2
286
     1
 66
     0
277
    -2
287
     1
 67
     0
278
    -2
288
     1
 68
     0
279
    -2
289
     1
 69
     0
  0
VISUALSTYLE
  5
2F
102
{ACAD_REACTORS
330
29
102
}
330
29
100
AcDbVisualStyle
  2
2dWireframe
 70
     4
177
     3
291
     0
 70
    58
 90
        0
176
     1
 90
        2
176
     1
 90
        0
176
     1
 90
        0
176
     1
 40
0.6
176
     1
 40
30.0
176
     1
 62
     7
420
 16777215
176
     1
 90
        1
176
     1
 90
        4
176
     1
 62
     7
176
     1
 62
   257
176
     1
 90
        1
176
     1
 90
        1
176
     1
 40
1.0
176
     1
 90
        0
176
     1
 62
   257
176
     1
 40
1.0
176
     1
 90
        1
176
     1
 90
        6
176
     1
 90
        2
176
     1
 62
     7
176
     1
 90
        5
176
     1
 90
        0
176
     1
 90
        0
176
     1
290
     0
176
     1
 90
        1
176
     1
 40
0.0
176
     1
 90
        0
176
     1
290
     1
176
     1
290
     1
176
     1
290
     0
176
     1
290
     0
176
     1
290
     0
176
     1
290
     0
176
     1
290
     0
176
     1
290
     0
176
     1
290
     0
176
     1
 90
       50
176
     1
 40
0.0
176
     1
 40
1.0
176
     1
 90
        0
176
     1
 62
    18
176
     1
 90
       50
176
     1
 90
        3
176
     1
 62
     5
420
      255
176
     1
290
     0
176
     1
 90
       50
176
     1
 90
       50
176
     1
 90
       50
176
     1
290
     0
176
     1
 90
       50
176
     1
 62
   256
176
     0
 40
1.0
176
     0
 90
        2
176
     1
  1
strokes_ogs.tif
176
     1
290
     0
176
     1
 40
1.0
176
     1
 40
1.0
176
     1
  0
VISUALSTYLE
  5
2E
102
{ACAD_REACTORS
330
29
102
}
330
29
100
AcDbVisualStyle
  2
Basic
 70
     7
177
     3
291
     1
 70
    58
 90
        1
176
     1
 90
        0
176
     1
 90
        1
176
     1
 90
        0
176
     1
 40
0.6
176
     1
 40
30.0
176
     1
 62
     7
420
 16777215
176
     1
 90
        0
176
     1
 90
        4
176
     1
 62
     7
176
     1
 62
   257
176
     1
 90
        1
176
     1
 90
        1
176
     1
 40
1.0
176
     1
 90
        8
176
     1
 62
     7
176
     1
 40
1.0
176
     1
 90
        1
176
     1
 90
        6
176
     1
 90
        2
176
     1
 62
     7
176
     1
 90
        5
176
     1
 90
        0
176
     1
 90
        0
176
     1
290
     0
176
     1
 90
        1
176
     1
 40
0.0
176
     1
 90
        0
176
     1
290
     0
176
     1
290
     1
176
     1
290
     1
176
     1
290
     0
176
     1
290
     0
176
     1
290
     0
176
     1
290
     0
176
     1
290
     0
176
     1
290
     0
176
     1
 90
       50
176
     1
 40
0.0
176
     1
 40
1.0
176
     1
 90
        0
176
     1
 62
    18
176
     1
 90
       50
176
     1
 90
        3
176
     1
 62
     5
420
      255
176
     1
290
     0
176
     1
 90
       50
176
     1
 90
       50
176
     1
 90
       50
176
     1
290
     0
176
     1
 90
       50
176
     1
 62
   256
176
     0
 40
1.0
176
     0
 90
        2
176
     1
  1
strokes_ogs.tif
176
     1
290
     0
176
     1
 40
1.0
176
     1
 40
1.0
176
     1
  0
VISUALSTYLE
  5
35
102
{ACAD_REACTORS
330
29
102
}
330
29
100
AcDbVisualStyle
  2
Brighten
 70
    12
177
     3
291
     1
 70
    58
 90
        2
176
     1
 90
        2
176
     1
 90
        0
176
     1
 90
        0
176
     1
 40
0.6
176
     1
 40
30.0
176
     1
 62
     7
420
 16777215
176
     1
 90
        1
176
     1
 90
        4
176
     1
 62
     7
176
     1
 62
   257
176
     1
 90
        1
176
     1
 90
        1
176
     1
 40
1.0
176
     1
 90
        8
176
     1
 62
     7
176
     1
 40
1.0
176
     1
 90
        1
176
     1
 90
        6
176
     1
 90
        2
176
     1
 62
     7
176
     1
 90
        5
176
     1
 90
        0
176
     1
 90
        0
176
     1
290
     0
176
     1
 90
        1
176
     1
 40
50.0
176
     1
 90
        0
176
     1
290
     0
176
     1
290
     1
176
     1
290
     1
176
     1
290
     0
176
     1
290
     0
176
     1
290
     0
176
     1
290
     0
176
     1
290
     0
176
     1
290
     0
176
     1
 90
       50
176
     1
 40
0.0
176
     1
 40
1.0
176
     1
 90
        0
176
     1
 62
    18
176
     1
 90
       50
176
     1
 90
        3
176
     1
 62
     5
420
      255
176
     1
290
     0
176
     1
 90
       50
176
     1
 90
       50
176
     1
 90
       50
176
     1
290
     0
176
     1
 90
       50
176
     1
 62
   256
176
     0
 40
1.0
176
     0
 90
        2
176
     1
  1
strokes_ogs.tif
176
     1
290
     0
176
     1
 40
1.0
176
     1
 40
1.0
176
     1
  0
VISUALSTYLE
  5
39
102
{ACAD_REACTORS
330
29
102
}
330
29
100
AcDbVisualStyle
  2
ColorChange
 70
    16
177
     3
291
     1
 70
    58
 90
        2
176
     1
 90
        2
176
     1
 90
        3
176
     1
 90
        0
176
     1
 40
0.6
176
     1
 40
30.0
176
     1
 62
     8
420
  8421504
176
     1
 90
        1
176
     1
 90
        4
176
     1
 62
     7
176
     1
 62
   257
176
     1
 90
        1
176
     1
 90
        1
176
     1
 40
1.0
176
     1
 90
        8
176
     1
 62
     8
420
  8421504
176
     1
 40
1.0
176
     1
 90
        1
176
     1
 90
        6
176
     1
 90
        2
176
     1
 62
     7
176
     1
 90
        5
176
     1
 90
        0
176
     1
 90
        0
176
     1
290
     0
176
     1
 90
        1
176
     1
 40
0.0
176
     1
 90
        0
176
     1
290
     0
176
     1
290
     1
176
     1
290
     1
176
     1
290
     0
176
     1
290
     0
176
     1
290
     0
176
     1
290
     0
176
     1
290
     0
176
     1
290
     0
176
     1
 90
       50
176
     1
 40
0.0
176
     1
 40
1.0
176
     1
 90
        0
176
     1
 62
    18
176
     1
 90
       50
176
     1
 90
        3
176
     1
 62
     5
420
      255
176
     1
290
     0
176
     1
 90
       50
176
     1
 90
       50
176
     1
 90
       50
176
     1
290
     0
176
     1
 90
       50
176
     1
 62
   256
176
     0
 40
1.0
176
     0
 90
        2
176
     1
  1
strokes_ogs.tif
176
     1
290
     0
176
     1
 40
1.0
176
     1
 40
1.0
176
     1
  0
VISUALSTYLE
  5
32
102
{ACAD_REACTORS
330
29
102
}
330
29
100
AcDbVisualStyle
  2
Conceptual
 70
     9
177
     3
291
     0
 70
    58
 90
        3
176
     1
 90
        2
176
     1
 90
        0
176
     1
 90
        0
176
     1
 40
0.6
176
     1
 40
30.0
176
     1
 62
     7
420
 16777215
176
     1
 90
        2
176
     1
 90
        2
176
     1
 62
     7
176
     1
 62
   257
176
     1
 90
        1
176
     1
 90
        1
176
     1
 40
179.0
176
     1
 90
        8
176
     1
 62
     7
176
     1
 40
1.0
176
     1
 90
        1
176
     1
 90
        6
176
     1
 90
        2
176
     1
 62
     7
176
     1
 90
        3
176
     1
 90
        0
176
     1
 90
        0
176
     1
290
     0
176
     1
 90
        1
176
     1
 40
0.0
176
     1
 90
        0
176
     1
290
     0
176
     1
290
     1
176
     1
290
     1
176
     1
290
     0
176
     1
290
     0
176
     1
290
     0
176
     1
290
     0
176
     1
290
     0
176
     1
290
     0
176
     1
 90
       50
176
     1
 40
0.0
176
     1
 40
1.0
176
     1
 90
        0
176
     1
 62
    18
176
     1
 90
       50
176
     1
 90
        3
176
     1
 62
     5
420
      255
176
     1
290
     0
176
     1
 90
       50
176
     1
 90
       50
176
     1
 90
       50
176
     1
290
     0
176
     1
 90
       50
176
     1
 62
   256
176
     0
 40
1.0
176
     0
 90
        2
176
     1
  1
strokes_ogs.tif
176
     1
290
     0
176
     1
 40
1.0
176
     1
 40
1.0
176
     1
  0
VISUALSTYLE
  5
34
102
{ACAD_REACTORS
330
29
102
}
330
29
100
AcDbVisualStyle
  2
Dim
 70
    11
177
     3
291
     1
 70
    58
 90
        2
176
     1
 90
        2
176
     1
 90
        0
176
     1
 90
        0
176
     1
 40
0.6
176
     1
 40
30.0
176
     1
 62
     7
420
 16777215
176
     1
 90
        1
176
     1
 90
        4
176
     1
 62
     7
176
     1
 62
   257
176
     1
 90
        1
176
     1
 90
        1
176
     1
 40
1.0
176
     1
 90
        8
176
     1
 62
     7
176
     1
 40
1.0
176
     1
 90
        1
176
     1
 90
        6
176
     1
 90
        2
176
     1
 62
     7
176
     1
 90
        5
176
     1
 90
        0
176
     1
 90
        0
176
     1
290
     0
176
     1
 90
        1
176
     1
 40
-50.0
176
     1
 90
        0
176
     1
290
     0
176
     1
290
     1
176
     1
290
     1
176
     1
290
     0
176
     1
290
     0
176
     1
290
     0
176
     1
290
     0
176
     1
290
     0
176
     1
290
     0
176
     1
 90
       50
176
     1
 40
0.0
176
     1
 40
1.0
176
     1
 90
        0
176
     1
 62
    18
176
     1
 90
       50
176
     1
 90
        3
176
     1
 62
     5
420
      255
176
     1
290
     0
176
     1
 90
       50
176
     1
 90
       50
176
     1
 90
       50
176
     1
290
     0
176
     1
 90
       50
176
     1
 62
   256
176
     0
 40
1.0
176
     0
 90
        2
176
     1
  1
strokes_ogs.tif
176
     1
290
     0
176
     1
 40
1.0
176
     1
 40
1.0
176
     1
  0
VISUALSTYLE
  5
41
102
{ACAD_REACTORS
330
29
102
}
330
29
100
AcDbVisualStyle
  2
EdgeColorOff
 70
    22
177
     3
291
     1
 70
    58
 90
        2
176
     0
 90
        2
176
     0
 90
        0
176
     0
 90
        0
176
     0
 40
0.6
176
     0
 40
30.0
176
     0
 62
     7
420
 16777215
176
     0
 90
        1
176
     0
 90
        4
176
     0
 62
     7
176
     0
 62
   257
176
     0
 90
        1
176
     0
 90
        1
176
     0
 40
1.0
176
     0
 90
        8
176
     2
 62
     7
176
     0
 40
1.0
176
     0
 90
        1
176
     0
 90
        6
176
     0
 90
        2
176
     0
 62
     7
176
     0
 90
        5
176
     0
 90
        0
176
     0
 90
        0
176
     0
290
     0
176
     0
 90
        1
176
     0
 40
0.0
176
     0
 90
        0
176
     0
290
     0
176
     0
290
     1
176
     0
290
     1
176
     0
290
     0
176
     0
290
     0
176
     0
290
     0
176
     0
290
     0
176
     0
290
     0
176
     0
290
     0
176
     0
 90
       50
176
     0
 40
0.0
176
     0
 40
1.0
176
     0
 90
        0
176
     0
 62
    18
176
     0
 90
       50
176
     0
 90
        3
176
     0
 62
     5
420
      255
176
     0
290
     0
176
     0
 90
       50
176
     0
 90
       50
176
     0
 90
       50
176
     0
290
     0
176
     0
 90
       50
176
     0
 62
   256
176
     0
 40
1.0
176
     0
 90
        2
176
     0
  1
strokes_ogs.tif
176
     0
290
     0
176
     0
 40
1.0
176
     0
 40
1.0
176
     0
  0
VISUALSTYLE
  5
38
102
{ACAD_REACTORS
330
29
102
}
330
29
100
AcDbVisualStyle
  2
Facepattern
 70
    15
177
     3
291
     1
 70
    58
 90
        2
176
     1
 90
        2
176
     1
 90
        0
176
     1
 90
        0
176
     1
 40
0.6
176
     1
 40
30.0
176
     1
 62
     7
420
 16777215
176
     1
 90
        1
176
     1
 90
        4
176
     1
 62
     7
176
     1
 62
   257
176
     1
 90
        1
176
     1
 90
        1
176
     1
 40
1.0
176
     1
 90
        8
176
     1
 62
     7
176
     1
 40
1.0
176
     1
 90
        1
176
     1
 90
        6
176
     1
 90
        2
176
     1
 62
     7
176
     1
 90
        5
176
     1
 90
        0
176
     1
 90
        0
176
     1
290
     0
176
     1
 90
        1
176
     1
 40
0.0
176
     1
 90
        0
176
     1
290
     0
176
     1
290
     1
176
     1
290
     1
176
     1
290
     0
176
     1
290
     0
176
     1
290
     0
176
     1
290
     0
176
     1
290
     0
176
     1
290
     0
176
     1
 90
       50
176
     1
 40
0.0
176
     1
 40
1.0
176
     1
 90
        0
176
     1
 62
    18
176
     1
 90
       50
176
     1
 90
        3
176
     1
 62
     5
420
      255
176
     1
290
     0
176
     1
 90
       50
176
     1
 90
       50
176
     1
 90
       50
176
     1
290
     0
176
     1
 90
       50
176
     1
 62
   256
176
     0
 40
1.0
176
     0
 90
        2
176
     1
  1
strokes_ogs.tif
176
     1
290
     0
176
     1
 40
1.0
176
     1
 40
1.0
176
     1
  0
VISUALSTYLE
  5
2A
102
{ACAD_REACTORS
330
29
102
}
330
29
100
AcDbVisualStyle
  2
Flat
 70
     0
177
     3
291
     1
 70
    58
 90
        2
176
     1
 90
        1
176
     1
 90
        1
176
     1
 90
        2
176
     1
 40
0.6
176
     1
 40
30.0
176
     1
 62
     7
420
 16777215
176
     1
 90
        0
176
     1
 90
        0
176
     1
 62
     7
176
     1
 62
   257
176
     1
 90
        1
176
     1
 90
        1
176
     1
 40
1.0
176
     1
 90
        8
176
     1
 62
     7
176
     1
 40
1.0
176
     1
 90
        1
176
     1
 90
        6
176
     1
 90
        2
176
     1
 62
     7
176
     1
 90
        5
176
     1
 90
        0
176
     1
 90
        0
176
     1
290
     0
176
     1
 90
       13
176
     1
 40
0.0
176
     1
 90
        0
176
     1
290
     0
176
     1
290
     1
176
     1
290
     1
176
     1
290
     0
176
     1
290
     0
176
     1
290
     0
176
     1
290
     0
176
     1
290
     0
176
     1
290
     0
176
     1
 90
       50
176
     1
 40
0.0
176
     1
 40
1.0
176
     1
 90
        0
176
     1
 62
    18
176
     1
 90
       50
176
     1
 90
        3
176
     1
 62
     5
420
      255
176
     1
290
     0
176
     1
 90
       50
176
     1
 90
       50
176
     1
 90
       50
176
     1
290
     0
176
     1
 90
       50
176
     1
 62
   256
176
     0
 40
1.0
176
     0
 90
        2
176
     1
  1
strokes_ogs.tif
176
     1
290
     0
176
     1
 40
1.0
176
     1
 40
1.0
176
     1
  0
VISUALSTYLE
  5
2B
102
{ACAD_REACTORS
330
29
102
}
330
29
100
AcDbVisualStyle
  2
FlatWithEdges
 70
     1
177
     3
291
     1
 70
    58
 90
        2
176
     1
 90
        1
176
     1
 90
        1
176
     1
 90
        2
176
     1
 40
0.6
176
     1
 40
30.0
176
     1
 62
     7
420
 16777215
176
     1
 90
        1
176
     1
 90
        0
176
     1
 62
     7
176
     1
 62
   257
176
     1
 90
        1
176
     1
 90
        1
176
     1
 40
1.0
176
     1
 90
        0
176
     1
 62
   257
176
     1
 40
1.0
176
     1
 90
        1
176
     1
 90
        6
176
     1
 90
        2
176
     1
 62
     7
176
     1
 90
        5
176
     1
 90
        0
176
     1
 90
        0
176
     1
290
     0
176
     1
 90
       13
176
     1
 40
0.0
176
     1
 90
        0
176
     1
290
     0
176
     1
290
     1
176
     1
290
     1
176
     1
290
     0
176
     1
290
     0
176
     1
290
     0
176
     1
290
     0
176
     1
290
     0
176
     1
290
     0
176
     1
 90
       50
176
     1
 40
0.0
176
     1
 40
1.0
176
     1
 90
        0
176
     1
 62
    18
176
     1
 90
       50
176
     1
 90
        3
176
     1
 62
     5
420
      255
176
     1
290
     0
176
     1
 90
       50
176
     1
 90
       50
176
     1
 90
       50
176
     1
290
     0
176
     1
 90
       50
176
     1
 62
   256
176
     0
 40
1.0
176
     0
 90
        2
176
     1
  1
strokes_ogs.tif
176
     1
290
     0
176
     1
 40
1.0
176
     1
 40
1.0
176
     1
  0
VISUALSTYLE
  5
2C
102
{ACAD_REACTORS
330
29
102
}
330
29
100
AcDbVisualStyle
  2
Gouraud
 70
     2
177
     3
291
     1
 70
    58
 90
        2
176
     1
 90
        2
176
     1
 90
        1
176
     1
 90
        2
176
     1
 40
0.6
176
     1
 40
30.0
176
     1
 62
     7
420
 16777215
176
     1
 90
        0
176
     1
 90
        0
176
     1
 62
     7
176
     1
 62
   257
176
     1
 90
        1
176
     1
 90
        1
176
     1
 40
1.0
176
     1
 90
        0
176
     1
 62
     7
176
     1
 40
1.0
176
     1
 90
        1
176
     1
 90
        6
176
     1
 90
        2
176
     1
 62
     7
176
     1
 90
        5
176
     1
 90
        0
176
     1
 90
        0
176
     1
290
     0
176
     1
 90
       13
176
     1
 40
0.0
176
     1
 90
        0
176
     1
290
     0
176
     1
290
     1
176
     1
290
     1
176
     1
290
     0
176
     1
290
     0
176
     1
290
     0
176
     1
290
     0
176
     1
290
     0
176
     1
290
     0
176
     1
 90
       50
176
     1
 40
0.0
176
     1
 40
1.0
176
     1
 90
        0
176
     1
 62
    18
176
     1
 90
       50
176
     1
 90
        3
176
     1
 62
     5
420
      255
176
     1
290
     0
176
     1
 90
       50
176
     1
 90
       50
176
     1
 90
       50
176
     1
290
     0
176
     1
 90
       50
176
     1
 62
   256
176
     0
 40
1.0
176
     0
 90
        2
176
     1
  1
strokes_ogs.tif
176
     1
290
     0
176
     1
 40
1.0
176
     1
 40
1.0
176
     1
  0
VISUALSTYLE
  5
2D
102
{ACAD_REACTORS
330
29
102
}
330
29
100
AcDbVisualStyle
  2
GouraudWithEdges
 70
     3
177
     3
291
     1
 70
    58
 90
        2
176
     1
 90
        2
176
     1
 90
        1
176
     1
 90
        2
176
     1
 40
0.6
176
     1
 40
30.0
176
     1
 62
     7
420
 16777215
176
     1
 90
        1
176
     1
 90
        0
176
     1
 62
     7
176
     1
 62
   257
176
     1
 90
        1
176
     1
 90
        1
176
     1
 40
1.0
176
     1
 90
        0
176
     1
 62
   257
176
     1
 40
1.0
176
     1
 90
        1
176
     1
 90
        6
176
     1
 90
        2
176
     1
 62
     7
176
     1
 90
        5
176
     1
 90
        0
176
     1
 90
        0
176
     1
290
     0
176
     1
 90
       13
176
     1
 40
0.0
176
     1
 90
        0
176
     1
290
     0
176
     1
290
     1
176
     1
290
     1
176
     1
290
     0
176
     1
290
     0
176
     1
290
     0
176
     1
290
     0
176
     1
290
     0
176
     1
290
     0
176
     1
 90
       50
176
     1
 40
0.0
176
     1
 40
1.0
176
     1
 90
        0
176
     1
 62
    18
176
     1
 90
       50
176
     1
 90
        3
176
     1
 62
     5
420
      255
176
     1
290
     0
176
     1
 90
       50
176
     1
 90
       50
176
     1
 90
       50
176
     1
290
     0
176
     1
 90
       50
176
     1
 62
   256
176
     0
 40
1.0
176
     0
 90
        2
176
     1
  1
strokes_ogs.tif
176
     1
290
     0
176
     1
 40
1.0
176
     1
 40
1.0
176
     1
  0
VISUALSTYLE
  5
31
102
{ACAD_REACTORS
330
29
102
}
330
29
100
AcDbVisualStyle
  2
Hidden
 70
     6
177
     3
291
     0
 70
    58
 90
        1
176
     1
 90
        2
176
     1
 90
        2
176
     1
 90
        0
176
     1
 40
0.6
176
     1
 40
30.0
176
     1
 62
     7
420
 16777215
176
     1
 90
        2
176
     1
 90
        2
176
     1
 62
     7
176
     1
 62
   257
176
     1
 90
        2
176
     1
 90
        1
176
     1
 40
40.0
176
     1
 90
        0
176
     1
 62
   257
176
     1
 40
1.0
176
     1
 90
        1
176
     1
 90
        6
176
     1
 90
        2
176
     1
 62
     7
176
     1
 90
        3
176
     1
 90
        0
176
     1
 90
        0
176
     1
290
     0
176
     1
 90
        1
176
     1
 40
0.0
176
     1
 90
        0
176
     1
290
     0
176
     1
290
     1
176
     1
290
     1
176
     1
290
     0
176
     1
290
     0
176
     1
290
     0
176
     1
290
     0
176
     1
290
     0
176
     1
290
     0
176
     1
 90
       50
176
     1
 40
0.0
176
     1
 40
1.0
176
     1
 90
        0
176
     1
 62
    18
176
     1
 90
       50
176
     1
 90
        3
176
     1
 62
     5
420
      255
176
     1
290
     0
176
     1
 90
       50
176
     1
 90
       50
176
     1
 90
       50
176
     1
290
     0
176
     1
 90
       50
176
     1
 62
   256
176
     0
 40
1.0
176
     0
 90
        2
176
     1
  1
strokes_ogs.tif
176
     1
290
     0
176
     1
 40
1.0
176
     1
 40
1.0
176
     1
  0
VISUALSTYLE
  5
3F
102
{ACAD_REACTORS
330
29
102
}
330
29
100
AcDbVisualStyle
  2
JitterOff
 70
    20
177
     3
291
     1
 70
    58
 90
        2
176
     0
 90
        2
176
     0
 90
        0
176
     0
 90
        0
176
     0
 40
0.6
176
     0
 40
30.0
176
     0
 62
     7
420
 16777215
176
     0
 90
        1
176
     0
 90
        4
176
     0
 62
     7
176
     0
 62
   257
176
     0
 90
        1
176
     0
 90
        1
176
     0
 40
1.0
176
     0
 90
       10
176
     2
 62
     7
176
     0
 40
1.0
176
     0
 90
        1
176
     0
 90
        6
176
     0
 90
        2
176
     0
 62
     7
176
     0
 90
        5
176
     0
 90
        0
176
     0
 90
        0
176
     0
290
     0
176
     0
 90
        1
176
     0
 40
0.0
176
     0
 90
        0
176
     0
290
     0
176
     0
290
     1
176
     0
290
     1
176
     0
290
     0
176
     0
290
     0
176
     0
290
     0
176
     0
290
     0
176
     0
290
     0
176
     0
290
     0
176
     0
 90
       50
176
     0
 40
0.0
176
     0
 40
1.0
176
     0
 90
        0
176
     0
 62
    18
176
     0
 90
       50
176
     0
 90
        3
176
     0
 62
     5
420
      255
176
     0
290
     0
176
     0
 90
       50
176
     0
 90
       50
176
     0
 90
       50
176
     0
290
     0
176
     0
 90
       50
176
     0
 62
   256
176
     0
 40
1.0
176
     0
 90
        2
176
     0
  1
strokes_ogs.tif
176
     0
290
     0
176
     0
 40
1.0
176
     0
 40
1.0
176
     0
  0
VISUALSTYLE
  5
37
102
{ACAD_REACTORS
330
29
102
}
330
29
100
AcDbVisualStyle
  2
Linepattern
 70
    14
177
     3
291
     1
 70
    58
 90
        2
176
     1
 90
        2
176
     1
 90
        0
176
     1
 90
        0
176
     1
 40
0.6
176
     1
 40
30.0
176
     1
 62
     7
420
 16777215
176
     1
 90
        1
176
     1
 90
        4
176
     1
 62
     7
176
     1
 62
   257
176
     1
 90
        7
176
     1
 90
        7
176
     1
 40
1.0
176
     1
 90
        8
176
     1
 62
     7
176
     1
 40
1.0
176
     1
 90
        1
176
     1
 90
        6
176
     1
 90
        2
176
     1
 62
     7
176
     1
 90
        5
176
     1
 90
        0
176
     1
 90
        0
176
     1
290
     0
176
     1
 90
        1
176
     1
 40
0.0
176
     1
 90
        0
176
     1
290
     0
176
     1
290
     1
176
     1
290
     1
176
     1
290
     0
176
     1
290
     0
176
     1
290
     0
176
     1
290
     0
176
     1
290
     0
176
     1
290
     0
176
     1
 90
       50
176
     1
 40
0.0
176
     1
 40
1.0
176
     1
 90
        0
176
     1
 62
    18
176
     1
 90
       50
176
     1
 90
        3
176
     1
 62
     5
420
      255
176
     1
290
     0
176
     1
 90
       50
176
     1
 90
       50
176
     1
 90
       50
176
     1
290
     0
176
     1
 90
       50
176
     1
 62
   256
176
     0
 40
1.0
176
     0
 90
        2
176
     1
  1
strokes_ogs.tif
176
     1
290
     0
176
     1
 40
1.0
176
     1
 40
1.0
176
     1
  0
VISUALSTYLE
  5
40
102
{ACAD_REACTORS
330
29
102
}
330
29
100
AcDbVisualStyle
  2
OverhangOff
 70
    21
177
     3
291
     1
 70
    58
 90
        2
176
     0
 90
        2
176
     0
 90
        0
176
     0
 90
        0
176
     0
 40
0.6
176
     0
 40
30.0
176
     0
 62
     7
420
 16777215
176
     0
 90
        1
176
     0
 90
        4
176
     0
 62
     7
176
     0
 62
   257
176
     0
 90
        1
176
     0
 90
        1
176
     0
 40
1.0
176
     0
 90
        9
176
     2
 62
     7
176
     0
 40
1.0
176
     0
 90
        1
176
     0
 90
        6
176
     0
 90
        2
176
     0
 62
     7
176
     0
 90
        5
176
     0
 90
        0
176
     0
 90
        0
176
     0
290
     0
176
     0
 90
        1
176
     0
 40
0.0
176
     0
 90
        0
176
     0
290
     0
176
     0
290
     1
176
     0
290
     1
176
     0
290
     0
176
     0
290
     0
176
     0
290
     0
176
     0
290
     0
176
     0
290
     0
176
     0
290
     0
176
     0
 90
       50
176
     0
 40
0.0
176
     0
 40
1.0
176
     0
 90
        0
176
     0
 62
    18
176
     0
 90
       50
176
     0
 90
        3
176
     0
 62
     5
420
      255
176
     0
290
     0
176
     0
 90
       50
176
     0
 90
       50
176
     0
 90
       50
176
     0
290
     0
176
     0
 90
       50
176
     0
 62
   256
176
     0
 40
1.0
176
     0
 90
        2
176
     0
  1
strokes_ogs.tif
176
     0
290
     0
176
     0
 40
1.0
176
     0
 40
1.0
176
     0
  0
VISUALSTYLE
  5
33
102
{ACAD_REACTORS
330
29
102
}
330
29
100
AcDbVisualStyle
  2
Realistic
 70
     8
177
     3
291
     0
 70
    58
 90
        2
176
     1
 90
        3
176
     1
 90
        0
176
     1
 90
        2
176
     1
 40
0.6
176
     1
 40
30.0
176
     1
 62
     7
420
 16777215
176
     1
 90
        0
176
     1
 90
        0
176
     1
 62
     7
176
     1
 62
   257
176
     1
 90
        1
176
     1
 90
        1
176
     1
 40
1.0
176
     1
 90
        8
176
     1
 62
   257
176
     1
 40
1.0
176
     1
 90
        1
176
     1
 90
        6
176
     1
 90
        2
176
     1
 62
     7
176
     1
 90
        3
176
     1
 90
        0
176
     1
 90
        0
176
     1
290
     0
176
     1
 90
       13
176
     1
 40
0.0
176
     1
 90
        0
176
     1
290
     0
176
     1
290
     1
176
     1
290
     1
176
     1
290
     0
176
     1
290
     0
176
     1
290
     0
176
     1
290
     0
176
     1
290
     0
176
     1
290
     0
176
     1
 90
       50
176
     1
 40
0.0
176
     1
 40
1.0
176
     1
 90
        0
176
     1
 62
    18
176
     1
 90
       50
176
     1
 90
        3
176
     1
 62
     5
420
      255
176
     1
290
     0
176
     1
 90
       50
176
     1
 90
       50
176
     1
 90
       50
176
     1
290
     0
176
     1
 90
       50
176
     1
 62
   256
176
     0
 40
1.0
176
     0
 90
        2
176
     1
  1
strokes_ogs.tif
176
     1
290
     0
176
     1
 40
1.0
176
     1
 40
1.0
176
     1
  0
VISUALSTYLE
  5
3E
102
{ACAD_REACTORS
330
29
102
}
330
29
100
AcDbVisualStyle
  2
Shaded
 70
    27
177
     3
291
     0
 70
    58
 90
        2
176
     1
 90
        2
176
     1
 90
        1
176
     1
 90
        2
176
     1
 40
0.6
176
     1
 40
30.0
176
     1
 62
     7
420
 16777215
176
     1
 90
        0
176
     1
 90
        4
176
     1
 62
     7
176
     1
 62
   257
176
     1
 90
        1
176
     1
 90
        1
176
     1
 40
1.0
176
     1
 90
        8
176
     1
 62
   257
176
     1
 40
1.0
176
     1
 90
        1
176
     1
 90
        6
176
     1
 90
        2
176
     1
 62
     8
420
  7895160
176
     1
 90
        3
176
     1
 90
        0
176
     1
 90
        0
176
     1
290
     0
176
     1
 90
        5
176
     1
 40
0.0
176
     1
 90
        0
176
     1
290
     0
176
     1
290
     1
176
     1
290
     1
176
     1
290
     0
176
     1
290
     0
176
     1
290
     0
176
     1
290
     0
176
     1
290
     0
176
     1
290
     0
176
     1
 90
       50
176
     1
 40
0.0
176
     1
 40
1.0
176
     1
 90
        0
176
     1
 62
    18
176
     1
 90
       50
176
     1
 90
        3
176
     1
 62
     5
420
      255
176
     1
290
     0
176
     1
 90
       50
176
     1
 90
       50
176
     1
 90
       50
176
     1
290
     0
176
     1
 90
       50
176
     1
 62
   256
176
     0
 40
1.0
176
     0
 90
        2
176
     1
  1
strokes_ogs.tif
176
     1
290
     0
176
     1
 40
1.0
176
     1
 40
1.0
176
     1
  0
VISUALSTYLE
  5
3D
102
{ACAD_REACTORS
330
29
102
}
330
29
100
AcDbVisualStyle
  2
Shaded with edges
 70
    26
177
     3
291
     0
 70
    58
 90
        2
176
     1
 90
        2
176
     1
 90
        1
176
     1
 90
        2
176
     1
 40
0.6
176
     1
 40
30.0
176
     1
 62
     7
420
 16777215
176
     1
 90
        1
176
     1
 90
        2
176
     1
 62
     7
176
     1
 62
   257
176
     1
 90
        2
176
     1
 90
        1
176
     1
 40
1.0
176
     1
 90
        8
176
     1
 62
   257
176
     1
 40
1.0
176
     1
 90
        1
176
     1
 90
        6
176
     1
 90
        2
176
     1
 62
     7
176
     1
 90
        3
176
     1
 90
        0
176
     1
 90
        0
176
     1
290
     0
176
     1
 90
        5
176
     1
 40
0.0
176
     1
 90
        0
176
     1
290
     0
176
     1
290
     1
176
     1
290
     1
176
     1
290
     0
176
     1
290
     0
176
     1
290
     0
176
     1
290
     0
176
     1
290
     0
176
     1
290
     0
176
     1
 90
       50
176
     1
 40
0.0
176
     1
 40
1.0
176
     1
 90
        0
176
     1
 62
    18
176
     1
 90
       50
176
     1
 90
        3
176
     1
 62
     5
420
      255
176
     1
290
     0
176
     1
 90
       50
176
     1
 90
       50
176
     1
 90
       50
176
     1
290
     0
176
     1
 90
       50
176
     1
 62
   256
176
     0
 40
1.0
176
     0
 90
        2
176
     1
  1
strokes_ogs.tif
176
     1
290
     0
176
     1
 40
1.0
176
     1
 40
1.0
176
     1
  0
VISUALSTYLE
  5
3A
102
{ACAD_REACTORS
330
29
102
}
330
29
100
AcDbVisualStyle
  2
Shades of Gray
 70
    23
177
     3
291
     0
 70
    58
 90
        2
176
     1
 90
        2
176
     1
 90
        3
176
     1
 90
        0
176
     1
 40
0.6
176
     1
 40
30.0
176
     1
 62
     7
420
 16777215
176
     1
 90
        2
176
     1
 90
        2
176
     1
 62
     7
176
     1
 62
     7
176
     1
 90
        1
176
     1
 90
        1
176
     1
 40
40.0
176
     1
 90
        8
176
     1
 62
     7
176
     1
 40
1.0
176
     1
 90
        1
176
     1
 90
        6
176
     1
 90
        2
176
     1
 62
     7
176
     1
 90
        3
176
     1
 90
        0
176
     1
 90
        0
176
     1
290
     0
176
     1
 90
        1
176
     1
 40
0.0
176
     1
 90
        0
176
     1
290
     0
176
     1
290
     1
176
     1
290
     1
176
     1
290
     0
176
     1
290
     0
176
     1
290
     0
176
     1
290
     0
176
     1
290
     0
176
     1
290
     0
176
     1
 90
       50
176
     1
 40
0.0
176
     1
 40
1.0
176
     1
 90
        0
176
     1
 62
    18
176
     1
 90
       50
176
     1
 90
        3
176
     1
 62
     5
420
      255
176
     1
290
     0
176
     1
 90
       50
176
     1
 90
       50
176
     1
 90
       50
176
     1
290
     0
176
     1
 90
       50
176
     1
 62
   256
176
     0
 40
1.0
176
     0
 90
        2
176
     1
  1
strokes_ogs.tif
176
     1
290
     0
176
     1
 40
1.0
176
     1
 40
1.0
176
     1
  0
VISUALSTYLE
  5
3B
102
{ACAD_REACTORS
330
29
102
}
330
29
100
AcDbVisualStyle
  2
Sketchy
 70
    24
177
     3
291
     0
 70
    58
 90
        1
176
     1
 90
        2
176
     1
 90
        2
176
     1
 90
        0
176
     1
 40
0.6
176
     1
 40
30.0
176
     1
 62
     7
420
 16777215
176
     1
 90
        2
176
     1
 90
        2
176
     1
 62
     7
176
     1
 62
     7
176
     1
 90
        1
176
     1
 90
        1
176
     1
 40
40.0
176
     1
 90
       11
176
     1
 62
     7
176
     1
 40
1.0
176
     1
 90
        1
176
     1
 90
        6
176
     1
 90
        2
176
     1
 62
     7
176
     1
 90
        6
176
     1
 90
        0
176
     1
 90
        0
176
     1
290
     0
176
     1
 90
        1
176
     1
 40
0.0
176
     1
 90
        0
176
     1
290
     0
176
     1
290
     1
176
     1
290
     1
176
     1
290
     0
176
     1
290
     0
176
     1
290
     0
176
     1
290
     0
176
     1
290
     0
176
     1
290
     0
176
     1
 90
       50
176
     1
 40
0.0
176
     1
 40
1.0
176
     1
 90
        0
176
     1
 62
    18
176
     1
 90
       50
176
     1
 90
        3
176
     1
 62
     5
420
      255
176
     1
290
     0
176
     1
 90
       50
176
     1
 90
       50
176
     1
 90
       50
176
     1
290
     0
176
     1
 90
       50
176
     1
 62
   256
176
     0
 40
1.0
176
     0
 90
        2
176
     1
  1
strokes_ogs.tif
176
     1
290
     0
176
     1
 40
1.0
176
     1
 40
1.0
176
     1
  0
VISUALSTYLE
  5
36
102
{ACAD_REACTORS
330
29
102
}
330
29
100
AcDbVisualStyle
  2
Thicken
 70
    13
177
     3
291
     1
 70
    58
 90
        2
176
     1
 90
        2
176
     1
 90
        0
176
     1
 90
        0
176
     1
 40
0.6
176
     1
 40
30.0
176
     1
 62
     7
420
 16777215
176
     1
 90
        1
176
     1
 90
        4
176
     1
 62
     7
176
     1
 62
   257
176
     1
 90
        1
176
     1
 90
        1
176
     1
 40
1.0
176
     1
 90
       12
176
     1
 62
     7
176
     1
 40
1.0
176
     1
 90
        1
176
     1
 90
        6
176
     1
 90
        2
176
     1
 62
     7
176
     1
 90
        5
176
     1
 90
        0
176
     1
 90
        0
176
     1
290
     0
176
     1
 90
        1
176
     1
 40
0.0
176
     1
 90
        0
176
     1
290
     0
176
     1
290
     1
176
     1
290
     1
176
     1
290
     0
176
     1
290
     0
176
     1
290
     0
176
     1
290
     0
176
     1
290
     0
176
     1
290
     0
176
     1
 90
       50
176
     1
 40
0.0
176
     1
 40
1.0
176
     1
 90
        0
176
     1
 62
    18
176
     1
 90
       50
176
     1
 90
        3
176
     1
 62
     5
420
      255
176
     1
290
     0
176
     1
 90
       50
176
     1
 90
       50
176
     1
 90
       50
176
     1
290
     0
176
     1
 90
       50
176
     1
 62
   256
176
     0
 40
1.0
176
     0
 90
        2
176
     1
  1
strokes_ogs.tif
176
     1
290
     0
176
     1
 40
1.0
176
     1
 40
1.0
176
     1
  0
VISUALSTYLE
  5
30
102
{ACAD_REACTORS
330
29
102
}
330
29
100
AcDbVisualStyle
  2
Wireframe
 70
     5
177
     3
291
     0
 70
    58
 90
        0
176
     1
 90
        2
176
     1
 90
        0
176
     1
 90
        0
176
     1
 40
0.6
176
     1
 40
30.0
176
     1
 62
     7
420
 16777215
176
     1
 90
        1
176
     1
 90
        4
176
     1
 62
     7
176
     1
 62
   257
176
     1
 90
        1
176
     1
 90
        1
176
     1
 40
1.0
176
     1
 90
        0
176
     1
 62
   257
176
     1
 40
1.0
176
     1
 90
        1
176
     1
 90
        6
176
     1
 90
        2
176
     1
 62
     7
176
     1
 90
        3
176
     1
 90
        0
176
     1
 90
        0
176
     1
290
     0
176
     1
 90
        1
176
     1
 40
0.0
176
     1
 90
        0
176
     1
290
     0
176
     1
290
     1
176
     1
290
     1
176
     1
290
     0
176
     1
290
     0
176
     1
290
     0
176
     1
290
     0
176
     1
290
     0
176
     1
290
     0
176
     1
 90
       50
176
     1
 40
0.0
176
     1
 40
1.0
176
     1
 90
        0
176
     1
 62
    18
176
     1
 90
       50
176
     1
 90
        3
176
     1
 62
     5
420
      255
176
     1
290
     0
176
     1
 90
       50
176
     1
 90
       50
176
     1
 90
       50
176
     1
290
     0
176
     1
 90
       50
176
     1
 62
   256
176
     0
 40
1.0
176
     0
 90
        2
176
     1
  1
strokes_ogs.tif
176
     1
290
     0
176
     1
 40
1.0
176
     1
 40
1.0
176
     1
  0
VISUALSTYLE
  5
3C
102
{ACAD_REACTORS
330
29
102
}
330
29
100
AcDbVisualStyle
  2
X-Ray
 70
    25
177
     3
291
     0
 70
    58
 90
        2
176
     1
 90
        2
176
     1
 90
        1
176
     1
 90
        1
176
     1
 40
0.5
176
     1
 40
30.0
176
     1
 62
     7
420
 16777215
176
     1
 90
        1
176
     1
 90
        0
176
     1
 62
     7
176
     1
 62
   257
176
     1
 90
        1
176
     1
 90
        1
176
     1
 40
1.0
176
     1
 90
        8
176
     1
 62
     7
176
     1
 40
1.0
176
     1
 90
        1
176
     1
 90
        6
176
     1
 90
        2
176
     1
 62
     7
176
     1
 90
        3
176
     1
 90
        0
176
     1
 90
        0
176
     1
290
     0
176
     1
 90
       13
176
     1
 40
0.0
176
     1
 90
        0
176
     1
290
     0
176
     1
290
     1
176
     1
290
     1
176
     1
290
     0
176
     1
290
     0
176
     1
290
     0
176
     1
290
     0
176
     1
290
     0
176
     1
290
     0
176
     1
 90
       50
176
     1
 40
0.0
176
     1
 40
1.0
176
     1
 90
        0
176
     1
 62
    18
176
     1
 90
       50
176
     1
 90
        3
176
     1
 62
     5
420
      255
176
     1
290
     0
176
     1
 90
       50
176
     1
 90
       50
176
     1
 90
       50
176
     1
290
     0
176
     1
 90
       50
176
     1
 62
   256
176
     0
 40
1.0
176
     0
 90
        2
176
     1
  1
strokes_ogs.tif
176
     1
290
     0
176
     1
 40
1.0
176
     1
 40
1.0
176
     1
  0
DICTIONARYVAR
  5
1DD
102
{ACAD_REACTORS
330
1D8
102
}
330
1D8
100
DictionaryVariables
280
     0
  1
1:1
  0
DICTIONARYVAR
  5
1DA
102
{ACAD_REACTORS
330
1D8
102
}
330
1D8
100
DictionaryVariables
280
     0
  1
STANDARD
  0
DICTIONARYVAR
  5
1D9
102
{ACAD_REACTORS
330
1D8
102
}
330
1D8
100
DictionaryVariables
280
     0
  1
STANDARD
  0
DICTIONARYVAR
  5
1DB
102
{ACAD_REACTORS
330
1D8
102
}
330
1D8
100
DictionaryVariables
280
     0
  1
Imperial24
  0
DICTIONARYVAR
  5
1DC
102
{ACAD_REACTORS
330
1D8
102
}
330
1D8
100
DictionaryVariables
280
     0
  1
Imperial24
  0
DICTIONARY
  5
1A
330
19
100
AcDbDictionary
280
     1
281
     1
  3
BUMPTILE
360
1C
  3
DIFFUSETILE
360
1B
  3
OPACITYTILE
360
1F
  3
REFLECTIONTILE
360
1E
  3
REFRACTIONTILE
360
20
  3
SPECULARTILE
360
1D
  0
DICTIONARY
  5
12
330
11
100
AcDbDictionary
280
     1
281
     1
  3
BUMPTILE
360
14
  3
DIFFUSETILE
360
13
  3
OPACITYTILE
360
17
  3
REFLECTIONTILE
360
16
  3
REFRACTIONTILE
360
18
  3
SPECULARTILE
360
15
  0
DICTIONARY
  5
22
330
21
100
AcDbDictionary
280
     1
281
     1
  3
BUMPTILE
360
24
  3
DIFFUSETILE
360
23
  3
OPACITYTILE
360
27
  3
REFLECTIONTILE
360
26
  3
REFRACTIONTILE
360
28
  3
SPECULARTILE
360
25
  0
DICTIONARY
  5
1DE
330
65
100
AcDbDictionary
280
     1
281
     1
  3
ACAD_ROUNDTRIP_2008_TABLESTYLE_CELLSTYLEMAP
360
4DB
  0
XRECORD
  5
1C
102
{ACAD_REACTORS
330
1A
102
}
330
1A
100
AcDbXrecord
280
     1
270
     1
271
     1
  0
XRECORD
  5
1B
102
{ACAD_REACTORS
330
1A
102
}
330
1A
100
AcDbXrecord
280
     1
270
     1
271
     1
  0
XRECORD
  5
1F
102
{ACAD_REACTORS
330
1A
102
}
330
1A
100
AcDbXrecord
280
     1
270
     1
271
     1
  0
XRECORD
  5
1E
102
{ACAD_REACTORS
330
1A
102
}
330
1A
100
AcDbXrecord
280
     1
270
     1
271
     1
  0
XRECORD
  5
20
102
{ACAD_REACTORS
330
1A
102
}
330
1A
100
AcDbXrecord
280
     1
270
     1
271
     1
  0
XRECORD
  5
1D
102
{ACAD_REACTORS
330
1A
102
}
330
1A
100
AcDbXrecord
280
     1
270
     1
271
     1
  0
XRECORD
  5
14
102
{ACAD_REACTORS
330
12
102
}
330
12
100
AcDbXrecord
280
     1
270
     1
271
     1
  0
XRECORD
  5
13
102
{ACAD_REACTORS
330
12
102
}
330
12
100
AcDbXrecord
280
     1
270
     1
271
     1
  0
XRECORD
  5
17
102
{ACAD_REACTORS
330
12
102
}
330
12
100
AcDbXrecord
280
     1
270
     1
271
     1
  0
XRECORD
  5
16
102
{ACAD_REACTORS
330
12
102
}
330
12
100
AcDbXrecord
280
     1
270
     1
271
     1
  0
XRECORD
  5
18
102
{ACAD_REACTORS
330
12
102
}
330
12
100
AcDbXrecord
280
     1
270
     1
271
     1
  0
XRECORD
  5
15
102
{ACAD_REACTORS
330
12
102
}
330
12
100
AcDbXrecord
280
     1
270
     1
271
     1
  0
XRECORD
  5
24
102
{ACAD_REACTORS
330
22
102
}
330
22
100
AcDbXrecord
280
     1
270
     1
271
     1
  0
XRECORD
  5
23
102
{ACAD_REACTORS
330
22
102
}
330
22
100
AcDbXrecord
280
     1
270
     1
271
     1
  0
XRECORD
  5
27
102
{ACAD_REACTORS
330
22
102
}
330
22
100
AcDbXrecord
280
     1
270
     1
271
     1
  0
XRECORD
  5
26
102
{ACAD_REACTORS
330
22
102
}
330
22
100
AcDbXrecord
280
     1
270
     1
271
     1
  0
XRECORD
  5
28
102
{ACAD_REACTORS
330
22
102
}
330
22
100
AcDbXrecord
280
     1
270
     1
271
     1
  0
XRECORD
  5
25
102
{ACAD_REACTORS
330
22
102
}
330
22
100
AcDbXrecord
280
     1
270
     1
271
     1
  0
CELLSTYLEMAP
  5
4DB
102
{ACAD_REACTORS
330
1DE
102
}
330
1DE
100
AcDbCellStyleMap
 90
        3
300
CELLSTYLE
  1
TABLEFORMAT_BEGIN
 90
        5
170
     1
 91
        0
 92
    32768
 62
   257
 93
        1
300
CONTENTFORMAT
  1
CONTENTFORMAT_BEGIN
 90
        0
 91
        0
 92
      512
 93
        0
300

 40
0.0
140
1.0
 94
        5
 62
     0
340
55
144
0.25
309
CONTENTFORMAT_END
171
     1
301
MARGIN
  1
CELLMARGIN_BEGIN
 40
0.06
 40
0.06
 40
0.06
 40
0.06
 40
0.18
 40
0.18
309
CELLMARGIN_END
 94
        6
 95
        1
302
GRIDFORMAT
  1
GRIDFORMAT_BEGIN
 90
        0
 91
        1
 62
     0
 92
       -2
340
0
 93
        0
 40
0.045
309
GRIDFORMAT_END
 95
        2
302
GRIDFORMAT
  1
GRIDFORMAT_BEGIN
 90
        0
 91
        1
 62
     0
 92
       -2
340
0
 93
        0
 40
0.045
309
GRIDFORMAT_END
 95
        4
302
GRIDFORMAT
  1
GRIDFORMAT_BEGIN
 90
        0
 91
        1
 62
     0
 92
       -2
340
0
 93
        0
 40
0.045
309
GRIDFORMAT_END
 95
        8
302
GRIDFORMAT
  1
GRIDFORMAT_BEGIN
 90
        0
 91
        1
 62
     0
 92
       -2
340
0
 93
        0
 40
0.045
309
GRIDFORMAT_END
 95
       16
302
GRIDFORMAT
  1
GRIDFORMAT_BEGIN
 90
        0
 91
        1
 62
     0
 92
       -2
340
0
 93
        0
 40
0.045
309
GRIDFORMAT_END
 95
       32
302
GRIDFORMAT
  1
GRIDFORMAT_BEGIN
 90
        0
 91
        1
 62
     0
 92
       -2
340
0
 93
        0
 40
0.045
309
GRIDFORMAT_END
309
TABLEFORMAT_END
  1
CELLSTYLE_BEGIN
 90
        1
 91
        1
300
_TITLE
309
CELLSTYLE_END
300
CELLSTYLE
  1
TABLEFORMAT_BEGIN
 90
        5
170
     1
 91
        0
 92
        0
 62
   257
 93
        1
300
CONTENTFORMAT
  1
CONTENTFORMAT_BEGIN
 90
        0
 91
        0
 92
      512
 93
        0
300

 40
0.0
140
1.0
 94
        5
 62
     0
340
55
144
0.18
309
CONTENTFORMAT_END
171
     1
301
MARGIN
  1
CELLMARGIN_BEGIN
 40
0.06
 40
0.06
 40
0.06
 40
0.06
 40
0.18
 40
0.18
309
CELLMARGIN_END
 94
        6
 95
        1
302
GRIDFORMAT
  1
GRIDFORMAT_BEGIN
 90
        0
 91
        1
 62
     0
 92
       -2
340
0
 93
        0
 40
0.045
309
GRIDFORMAT_END
 95
        2
302
GRIDFORMAT
  1
GRIDFORMAT_BEGIN
 90
        0
 91
        1
 62
     0
 92
       -2
340
0
 93
        0
 40
0.045
309
GRIDFORMAT_END
 95
        4
302
GRIDFORMAT
  1
GRIDFORMAT_BEGIN
 90
        0
 91
        1
 62
     0
 92
       -2
340
0
 93
        0
 40
0.045
309
GRIDFORMAT_END
 95
        8
302
GRIDFORMAT
  1
GRIDFORMAT_BEGIN
 90
        0
 91
        1
 62
     0
 92
       -2
340
0
 93
        0
 40
0.045
309
GRIDFORMAT_END
 95
       16
302
GRIDFORMAT
  1
GRIDFORMAT_BEGIN
 90
        0
 91
        1
 62
     0
 92
       -2
340
0
 93
        0
 40
0.045
309
GRIDFORMAT_END
 95
       32
302
GRIDFORMAT
  1
GRIDFORMAT_BEGIN
 90
        0
 91
        1
 62
     0
 92
       -2
340
0
 93
        0
 40
0.045
309
GRIDFORMAT_END
309
TABLEFORMAT_END
  1
CELLSTYLE_BEGIN
 90
        2
 91
        1
300
_HEADER
309
CELLSTYLE_END
300
CELLSTYLE
  1
TABLEFORMAT_BEGIN
 90
        5
170
     1
 91
        0
 92
        0
 62
   257
 93
        1
300
CONTENTFORMAT
  1
CONTENTFORMAT_BEGIN
 90
        0
 91
        0
 92
      512
 93
        0
300

 40
0.0
140
1.0
 94
        2
 62
     0
340
55
144
0.18
309
CONTENTFORMAT_END
171
     1
301
MARGIN
  1
CELLMARGIN_BEGIN
 40
0.06
 40
0.06
 40
0.06
 40
0.06
 40
0.18
 40
0.18
309
CELLMARGIN_END
 94
        6
 95
        1
302
GRIDFORMAT
  1
GRIDFORMAT_BEGIN
 90
        0
 91
        1
 62
     0
 92
       -2
340
0
 93
        0
 40
0.045
309
GRIDFORMAT_END
 95
        2
302
GRIDFORMAT
  1
GRIDFORMAT_BEGIN
 90
        0
 91
        1
 62
     0
 92
       -2
340
0
 93
        0
 40
0.045
309
GRIDFORMAT_END
 95
        4
302
GRIDFORMAT
  1
GRIDFORMAT_BEGIN
 90
        0
 91
        1
 62
     0
 92
       -2
340
0
 93
        0
 40
0.045
309
GRIDFORMAT_END
 95
        8
302
GRIDFORMAT
  1
GRIDFORMAT_BEGIN
 90
        0
 91
        1
 62
     0
 92
       -2
340
0
 93
        0
 40
0.045
309
GRIDFORMAT_END
 95
       16
302
GRIDFORMAT
  1
GRIDFORMAT_BEGIN
 90
        0
 91
        1
 62
     0
 92
       -2
340
0
 93
        0
 40
0.045
309
GRIDFORMAT_END
 95
       32
302
GRIDFORMAT
  1
GRIDFORMAT_BEGIN
 90
        0
 91
        1
 62
     0
 92
       -2
340
0
 93
        0
 40
0.045
309
GRIDFORMAT_END
309
TABLEFORMAT_END
  1
CELLSTYLE_BEGIN
 90
        3
 91
        2
300
_DATA
309
CELLSTYLE_END
  0
ENDSEC
  0
SECTION
  2
ACDSDATA
 70
     2
 71
     8
  0
ACDSSCHEMA
 90
        0
  1
AcDb_Thumbnail_Schema
  2
AcDbDs::ID
280
    10
 91
        8
  2
Thumbnail_Data
280
    15
 91
        0
101
ACDSRECORD
 95
        0
 90
        1
  2
AcDbDs::TreatedAsObjectData
280
     1
291
     1
101
ACDSRECORD
 95
        0
 90
        2
  2
AcDbDs::Legacy
280
     1
291
     1
101
ACDSRECORD
  1
AcDbDs::ID
 90
        3
  2
AcDs:Indexable
280
     1
291
     1
101
ACDSRECORD
  1
AcDbDs::ID
 90
        4
  2
AcDbDs::HandleAttribute
280
     7
282
     1
  0
ACDSSCHEMA
 90
        1
  1
AcDbDs::TreatedAsObjectDataSchema
  2
AcDbDs::TreatedAsObjectData
280
     1
 91
        0
  0
ACDSSCHEMA
 90
        2
  1
AcDbDs::LegacySchema
  2
AcDbDs::Legacy
280
     1
 91
        0
  0
ACDSSCHEMA
 90
        3
  1
AcDbDs::IndexedPropertySchema
  2
AcDs:Indexable
280
     1
 91
        0
  0
ACDSSCHEMA
 90
        4
  1
AcDbDs::HandleAttributeSchema
  2
AcDbDs::HandleAttribute
280
     7
 91
        1
284
     1
  0
ACDSRECORD
 90
        0
  2
AcDbDs::ID
280
    10
320
73
  2
Thumbnail_Data
280
    15
 94
     1029
310
89504E470D0A1A0A0000000D4948445200000100000000AE0803000000EECD237E00000300504C5445212830FFFFFF2128300000000000000000000000000000000000000000000000000000330000660000990000CC0000FF0033000033330033660033990033CC0033FF0066000066330066660066990066CC0066FF0099
310
000099330099660099990099CC0099FF00CC0000CC3300CC6600CC9900CCCC00CCFF00FF0000FF3300FF6600FF9900FFCC00FFFF3300003300333300663300993300CC3300FF3333003333333333663333993333CC3333FF3366003366333366663366993366CC3366FF3399003399333399663399993399CC3399FF33CC00
310
33CC3333CC6633CC9933CCCC33CCFF33FF0033FF3333FF6633FF9933FFCC33FFFF6600006600336600666600996600CC6600FF6633006633336633666633996633CC6633FF6666006666336666666666996666CC6666FF6699006699336699666699996699CC6699FF66CC0066CC3366CC6666CC9966CCCC66CCFF66FF0066
310
FF3366FF6666FF9966FFCC66FFFF9900009900339900669900999900CC9900FF9933009933339933669933999933CC9933FF9966009966339966669966999966CC9966FF9999009999339999669999999999CC9999FF99CC0099CC3399CC6699CC9999CCCC99CCFF99FF0099FF3399FF6699FF9999FFCC99FFFFCC0000CC00
310
33CC0066CC0099CC00CCCC00FFCC3300CC3333CC3366CC3399CC33CCCC33FFCC6600CC6633CC6666CC6699CC66CCCC66FFCC9900CC9933CC9966CC9999CC99CCCC99FFCCCC00CCCC33CCCC66CCCC99CCCCCCCCCCFFCCFF00CCFF33CCFF66CCFF99CCFFCCCCFFFFFF0000FF0033FF0066FF0099FF00CCFF00FFFF3300FF3333
310
FF3366FF3399FF33CCFF33FFFF6600FF6633FF6666FF6699FF66CCFF66FFFF9900FF9933FF9966FF9999FF99CCFF99FFFFCC00FFCC33FFCC66FFCC99FFCCCCFFCCFFFFFF00FFFF33FFFF66FFFF99FFFFCCFFFFFF0000000D0D0D1A1A1A2828283535354343435050505D5D5D6B6B6B787878868686939393A1A1A1AEAEAEBB
310
BBBBC9C9C9D6D6D6E4E4E4F1F1F1FFFFFF0000000000000000000000000000000000000000000000000000000000002E4550F1000000C04944415478DAEDD7CB0AC3201005D0F9FFFF9D7D294AA4DA34100AD57A0E8979ACC2CD8C3111000000000000000000000000000000000000000000000000C0EAF217A60A20AE1E35
310
A30EC7C9785AC7F78776ECEECF5201CF071AB7B2DF7BBD6B05109F02B85101D7B5BF5C00A548FEB60504F0E516582F80DA9D2F63B4D9AC0FA04E9B25A86C01D428C7AB7E4A9DEE2BB0F93A204FBAE0BC05F24E0BE4516D26410158082D14C0064B613F439B7F06010000000000000000000000000058C103C90559AE9CEEF2
310
AF0000000049454E44AE426082
  0
ENDSEC
  0
EOF
