  0
SECTION
  2
HEADER
  9
$ACADVER
  1
AC1032
  9
$ACADMAINTVER
 90
      228
  9
$DWGCODEPAGE
  3
ANSI_1252
  9
$REQUIREDVERSIONS
160
                 0
  9
$INSBASE
 10
0.0
 20
0.0
 30
0.0
  9
$EXTMIN
 10
1.000000000000000E+20
 20
1.000000000000000E+20
 30
1.000000000000000E+20
  9
$EXTMAX
 10
-1.000000000000000E+20
 20
-1.000000000000000E+20
 30
-1.000000000000000E+20
  9
$LIMMIN
 10
0.0
 20
0.0
  9
$LIMMAX
 10
12.0
 20
9.0
  9
$ORTHOMODE
 70
     0
  9
$REGENMODE
 70
     1
  9
$FILLMODE
 70
     1
  9
$QTEXTMODE
 70
     0
  9
$MIRRTEXT
 70
     0
  9
$LTSCALE
 40
1.0
  9
$ATTMODE
 70
     1
  9
$TEXTSIZE
 40
0.2
  9
$TRACEWID
 40
0.05
  9
$TEXTSTYLE
  7
Standard
  9
$CLAYER
  8
0
  9
$CELTYPE
  6
ByLayer
  9
$CECOLOR
 62
   256
  9
$CELTSCALE
 40
1.0
  9
$DISPSILH
 70
     0
  9
$DIMSCALE
 40
1.0
  9
$DIMASZ
 40
0.18
  9
$DIMEXO
 40
0.0625
  9
$DIMDLI
 40
0.38
  9
$DIMRND
 40
0.0
  9
$DIMDLE
 40
0.0
  9
$DIMEXE
 40
0.18
  9
$DIMTP
 40
0.0
  9
$DIMTM
 40
0.0
  9
$DIMTXT
 40
0.18
  9
$DIMCEN
 40
0.09
  9
$DIMTSZ
 40
0.0
  9
$DIMTOL
 70
     0
  9
$DIMLIM
 70
     0
  9
$DIMTIH
 70
     1
  9
$DIMTOH
 70
     1
  9
$DIMSE1
 70
     0
  9
$DIMSE2
 70
     0
  9
$DIMTAD
 70
     0
  9
$DIMZIN
 70
     0
  9
$DIMBLK
  1

  9
$DIMASO
 70
     1
  9
$DIMSHO
 70
     1
  9
$DIMPOST
  1

  9
$DIMAPOST
  1

  9
$DIMALT
 70
     0
  9
$DIMALTD
 70
     2
  9
$DIMALTF
 40
25.4
  9
$DIMLFAC
 40
1.0
  9
$DIMTOFL
 70
     0
  9
$DIMTVP
 40
0.0
  9
$DIMTIX
 70
     0
  9
$DIMSOXD
 70
     0
  9
$DIMSAH
 70
     0
  9
$DIMBLK1
  1

  9
$DIMBLK2
  1

  9
$DIMSTYLE
  2
Standard
  9
$DIMCLRD
 70
     0
  9
$DIMCLRE
 70
     0
  9
$DIMCLRT
 70
     0
  9
$DIMTFAC
 40
1.0
  9
$DIMGAP
 40
0.09
  9
$DIMJUST
 70
     0
  9
$DIMSD1
 70
     0
  9
$DIMSD2
 70
     0
  9
$DIMTOLJ
 70
     1
  9
$DIMTZIN
 70
     0
  9
$DIMALTZ
 70
     0
  9
$DIMALTTZ
 70
     0
  9
$DIMUPT
 70
     0
  9
$DIMDEC
 70
     4
  9
$DIMTDEC
 70
     4
  9
$DIMALTU
 70
     2
  9
$DIMALTTD
 70
     2
  9
$DIMTXSTY
  7
Standard
  9
$DIMAUNIT
 70
     0
  9
$DIMADEC
 70
     0
  9
$DIMALTRND
 40
0.0
  9
$DIMAZIN
 70
     0
  9
$DIMDSEP
 70
    46
  9
$DIMATFIT
 70
     3
  9
$DIMFRAC
 70
     0
  9
$DIMLDRBLK
  1

  9
$DIMLUNIT
 70
     2
  9
$DIMLWD
 70
    -2
  9
$DIMLWE
 70
    -2
  9
$DIMTMOVE
 70
     0
  9
$DIMFXL
 40
1.0
  9
$DIMFXLON
 70
     0
  9
$DIMJOGANG
 40
0.7853981633974483
  9
$DIMTFILL
 70
     0
  9
$DIMTFILLCLR
 70
     0
  9
$DIMARCSYM
 70
     0
  9
$DIMLTYPE
  6

  9
$DIMLTEX1
  6

  9
$DIMLTEX2
  6

  9
$DIMTXTDIRECTION
 70
     0
  9
$LUNITS
 70
     2
  9
$LUPREC
 70
     4
  9
$SKETCHINC
 40
0.1
  9
$FILLETRAD
 40
0.0
  9
$AUNITS
 70
     0
  9
$AUPREC
 70
     0
  9
$MENU
  1
.
  9
$ELEVATION
 40
0.0
  9
$PELEVATION
 40
0.0
  9
$THICKNESS
 40
0.0
  9
$LIMCHECK
 70
     0
  9
$CHAMFERA
 40
0.0
  9
$CHAMFERB
 40
0.0
  9
$CHAMFERC
 40
0.0
  9
$CHAMFERD
 40
0.0
  9
$SKPOLY
 70
     0
  9
$TDCREATE
 40
2460091.589259260
  9
$TDUCREATE
 40
2460091.880925926
  9
$TDUPDATE
 40
2460091.589259260
  9
$TDUUPDATE
 40
2460091.880925926
  9
$TDINDWG
 40
0.0000000000
  9
$TDUSRTIMER
 40
0.0000000000
  9
$USRTIMER
 70
     1
  9
$ANGBASE
 50
0.0
  9
$ANGDIR
 70
     0
  9
$PDMODE
 70
     0
  9
$PDSIZE
 40
0.0
  9
$PLINEWID
 40
0.0
  9
$SPLFRAME
 70
     0
  9
$SPLINETYPE
 70
     6
  9
$SPLINESEGS
 70
     8
  9
$HANDSEED
  5
12C
  9
$SURFTAB1
 70
     6
  9
$SURFTAB2
 70
     6
  9
$SURFTYPE
 70
     6
  9
$SURFU
 70
     6
  9
$SURFV
 70
     6
  9
$UCSBASE
  2

  9
$UCSNAME
  2

  9
$UCSORG
 10
0.0
 20
0.0
 30
0.0
  9
$UCSXDIR
 10
1.0
 20
0.0
 30
0.0
  9
$UCSYDIR
 10
0.0
 20
1.0
 30
0.0
  9
$UCSORTHOREF
  2

  9
$UCSORTHOVIEW
 70
     0
  9
$UCSORGTOP
 10
0.0
 20
0.0
 30
0.0
  9
$UCSORGBOTTOM
 10
0.0
 20
0.0
 30
0.0
  9
$UCSORGLEFT
 10
0.0
 20
0.0
 30
0.0
  9
$UCSORGRIGHT
 10
0.0
 20
0.0
 30
0.0
  9
$UCSORGFRONT
 10
0.0
 20
0.0
 30
0.0
  9
$UCSORGBACK
 10
0.0
 20
0.0
 30
0.0
  9
$PUCSBASE
  2

  9
$PUCSNAME
  2

  9
$PUCSORG
 10
0.0
 20
0.0
 30
0.0
  9
$PUCSXDIR
 10
1.0
 20
0.0
 30
0.0
  9
$PUCSYDIR
 10
0.0
 20
1.0
 30
0.0
  9
$PUCSORTHOREF
  2

  9
$PUCSORTHOVIEW
 70
     0
  9
$PUCSORGTOP
 10
0.0
 20
0.0
 30
0.0
  9
$PUCSORGBOTTOM
 10
0.0
 20
0.0
 30
0.0
  9
$PUCSORGLEFT
 10
0.0
 20
0.0
 30
0.0
  9
$PUCSORGRIGHT
 10
0.0
 20
0.0
 30
0.0
  9
$PUCSORGFRONT
 10
0.0
 20
0.0
 30
0.0
  9
$PUCSORGBACK
 10
0.0
 20
0.0
 30
0.0
  9
$USERI1
 70
     0
  9
$USERI2
 70
     0
  9
$USERI3
 70
     0
  9
$USERI4
 70
     0
  9
$USERI5
 70
     0
  9
$USERR1
 40
0.0
  9
$USERR2
 40
0.0
  9
$USERR3
 40
0.0
  9
$USERR4
 40
0.0
  9
$USERR5
 40
0.0
  9
$WORLDVIEW
 70
     1
  9
$SHADEDGE
 70
     3
  9
$SHADEDIF
 70
    70
  9
$TILEMODE
 70
     1
  9
$MAXACTVP
 70
    64
  9
$PINSBASE
 10
0.0
 20
0.0
 30
0.0
  9
$PLIMCHECK
 70
     0
  9
$PEXTMIN
 10
1.000000000000000E+20
 20
1.000000000000000E+20
 30
1.000000000000000E+20
  9
$PEXTMAX
 10
-1.000000000000000E+20
 20
-1.000000000000000E+20
 30
-1.000000000000000E+20
  9
$PLIMMIN
 10
0.0
 20
0.0
  9
$PLIMMAX
 10
12.0
 20
9.0
  9
$UNITMODE
 70
     0
  9
$VISRETAIN
 70
     1
  9
$PLINEGEN
 70
     0
  9
$PSLTSCALE
 70
     1
  9
$TREEDEPTH
 70
  3020
  9
$CMLSTYLE
  2
Standard
  9
$CMLJUST
 70
     0
  9
$CMLSCALE
 40
1.0
  9
$PROXYGRAPHICS
 70
     1
  9
$MEASUREMENT
 70
     0
  9
$CELWEIGHT
370
    -1
  9
$ENDCAPS
280
     0
  9
$JOINSTYLE
280
     0
  9
$LWDISPLAY
290
     1
  9
$INSUNITS
 70
     1
  9
$HYPERLINKBASE
  1

  9
$STYLESHEET
  1

  9
$XEDIT
290
     1
  9
$CEPSNTYPE
380
     0
  9
$PSTYLEMODE
290
     1
  9
$FINGERPRINTGUID
  2
{5B470254-9D58-FF4C-9FC3-389D478EC378}
  9
$VERSIONGUID
  2
{4570C643-7C62-0445-BB09-536EC408AEE9}
  9
$EXTNAMES
290
     1
  9
$PSVPSCALE
 40
0.0
  9
$OLESTARTUP
290
     0
  9
$SORTENTS
280
   127
  9
$INDEXCTL
280
     0
  9
$HIDETEXT
280
     1
  9
$XCLIPFRAME
280
     2
  9
$HALOGAP
280
     0
  9
$OBSCOLOR
 70
   257
  9
$OBSLTYPE
280
     0
  9
$INTERSECTIONDISPLAY
280
     0
  9
$INTERSECTIONCOLOR
 70
   257
  9
$DIMASSOC
280
     2
  9
$PROJECTNAME
  1

  9
$CAMERADISPLAY
290
     0
  9
$LENSLENGTH
 40
50.0
  9
$CAMERAHEIGHT
 40
0.0
  9
$STEPSPERSEC
 40
2.0
  9
$STEPSIZE
 40
6.0
  9
$3DDWFPREC
 40
2.0
  9
$PSOLWIDTH
 40
0.25
  9
$PSOLHEIGHT
 40
4.0
  9
$LOFTANG1
 40
1.570796326794896
  9
$LOFTANG2
 40
1.570796326794896
  9
$LOFTMAG1
 40
0.0
  9
$LOFTMAG2
 40
0.0
  9
$LOFTPARAM
 70
     7
  9
$LOFTNORMALS
280
     1
  9
$LATITUDE
 40
37.795
  9
$LONGITUDE
 40
-122.394
  9
$NORTHDIRECTION
 40
0.0
  9
$TIMEZONE
 70
 -8000
  9
$LIGHTGLYPHDISPLAY
280
     1
  9
$TILEMODELIGHTSYNCH
280
     1
  9
$CMATERIAL
347
11
  9
$SOLIDHIST
280
     0
  9
$SHOWHIST
280
     1
  9
$DWFFRAME
280
     2
  9
$DGNFRAME
280
     0
  9
$REALWORLDSCALE
290
     1
  9
$INTERFERECOLOR
 62
     1
  9
$INTERFEREOBJVS
345
33
  9
$INTERFEREVPVS
346
30
  9
$CSHADOW
280
     0
  9
$SHADOWPLANELOCATION
 40
0.0
  0
ENDSEC
  0
SECTION
  2
CLASSES
  0
CLASS
  1
ACDBDICTIONARYWDFLT
  2
AcDbDictionaryWithDefault
  3
ObjectDBX Classes
 90
        0
 91
        1
280
     0
281
     0
  0
CLASS
  1
MATERIAL
  2
AcDbMaterial
  3
ObjectDBX Classes
 90
     1153
 91
        3
280
     0
281
     0
  0
CLASS
  1
VISUALSTYLE
  2
AcDbVisualStyle
  3
ObjectDBX Classes
 90
     4095
 91
       24
280
     0
281
     0
  0
CLASS
  1
SCALE
  2
AcDbScale
  3
ObjectDBX Classes
 90
     1153
 91
       17
280
     0
281
     0
  0
CLASS
  1
TABLESTYLE
  2
AcDbTableStyle
  3
ObjectDBX Classes
 90
     4095
 91
        1
280
     0
281
     0
  0
CLASS
  1
MLEADERSTYLE
  2
AcDbMLeaderStyle
  3
ACDB_MLEADERSTYLE_CLASS
 90
     4095
 91
        1
280
     0
281
     0
  0
CLASS
  1
ACDBSECTIONVIEWSTYLE
  2
AcDbSectionViewStyle
  3
ObjectDBX Classes
 90
     1025
 91
        1
280
     0
281
     0
  0
CLASS
  1
ACDBDETAILVIEWSTYLE
  2
AcDbDetailViewStyle
  3
ObjectDBX Classes
 90
     1025
 91
        1
280
     0
281
     0
  0
CLASS
  1
DICTIONARYVAR
  2
AcDbDictionaryVar
  3
ObjectDBX Classes
 90
        0
 91
        5
280
     0
281
     0
  0
CLASS
  1
CELLSTYLEMAP
  2
AcDbCellStyleMap
  3
ObjectDBX Classes
 90
     1152
 91
        1
280
     0
281
     0
  0
ENDSEC
  0
SECTION
  2
TABLES
  0
TABLE
  2
VPORT
  5
8
330
0
100
AcDbSymbolTable
 70
     1
  0
VPORT
  5
57
330
8
100
AcDbSymbolTableRecord
100
AcDbViewportTableRecord
  2
*Active
 70
     0
 10
0.0
 20
0.0
 11
1.0
 21
1.0
 12
0.0
 22
0.0
 13
0.0
 23
0.0
 14
1.0
 24
1.0
 15
0.0
 25
0.0
 16
0.0
 26
0.0
 36
1.0
 17
6.5
 27
3.0
 37
0.0
 40
6.12
 41
3.115972823220418
 42
50.0
 43
0.0
 44
0.0
 50
0.0
 51
0.0
 71
     0
 72
   100
 73
     1
 74
     1
 75
     0
 76
     0
 77
     0
 78
     0
281
     0
 65
     1
110
0.0
120
0.0
130
0.0
111
1.0
121
0.0
131
0.0
112
0.0
122
1.0
132
0.0
 79
     0
146
0.0
 60
     3
 61
     5
292
     1
282
     1
141
0.0
142
0.0
 63
   250
421
  3355443
  0
ENDTAB
  0
TABLE
  2
LTYPE
  5
5
330
0
100
AcDbSymbolTable
 70
     1
  0
LTYPE
  5
5B
330
5
100
AcDbSymbolTableRecord
100
AcDbLinetypeTableRecord
  2
ByBlock
 70
     0
  3

 72
    65
 73
     0
 40
0.0
  0
LTYPE
  5
5C
330
5
100
AcDbSymbolTableRecord
100
AcDbLinetypeTableRecord
  2
ByLayer
 70
     0
  3

 72
    65
 73
     0
 40
0.0
  0
LTYPE
  5
5D
330
5
100
AcDbSymbolTableRecord
100
AcDbLinetypeTableRecord
  2
Continuous
 70
     0
  3
Solid line
 72
    65
 73
     0
 40
0.0
  0
ENDTAB
  0
TABLE
  2
LAYER
  5
2
330
0
100
AcDbSymbolTable
 70
     1
  0
LAYER
  5
54
330
2
100
AcDbSymbolTableRecord
100
AcDbLayerTableRecord
  2
0
 70
     0
 62
     7
  6
Continuous
370
     0
390
F
347
21
348
0
  0
ENDTAB
  0
TABLE
  2
STYLE
  5
3
330
0
100
AcDbSymbolTable
 70
     2
  0
STYLE
  5
55
330
3
100
AcDbSymbolTableRecord
100
AcDbTextStyleTableRecord
  2
Standard
 70
     0
 40
0.0
 41
1.0
 50
0.0
 71
     0
 42
0.2
  3
txt
  4

  0
STYLE
  5
5A
330
3
100
AcDbSymbolTableRecord
100
AcDbTextStyleTableRecord
  2
Annotative
 70
     0
 40
0.0
 41
1.0
 50
0.0
 71
     0
 42
0.2
  3
txt
  4

1001
AcadAnnotative
1000
AnnotativeData
1002
{
1070
     1
1070
     1
1002
}
  0
ENDTAB
  0
TABLE
  2
VIEW
  5
6
330
0
100
AcDbSymbolTable
 70
     0
  0
ENDTAB
  0
TABLE
  2
UCS
  5
7
330
0
100
AcDbSymbolTable
 70
     0
  0
ENDTAB
  0
TABLE
  2
APPID
  5
9
330
0
100
AcDbSymbolTable
 70
     2
  0
APPID
  5
56
330
9
100
AcDbSymbolTableRecord
100
AcDbRegAppTableRecord
  2
ACAD
 70
     0
  0
APPID
  5
5E
330
9
100
AcDbSymbolTableRecord
100
AcDbRegAppTableRecord
  2
AcadAnnotative
 70
     0
  0
ENDTAB
  0
TABLE
  2
DIMSTYLE
  5
A
330
0
100
AcDbSymbolTable
 70
     2
100
AcDbDimStyleTable
 71
     0
  0
DIMSTYLE
105
58
330
A
100
AcDbSymbolTableRecord
100
AcDbDimStyleTableRecord
  2
Standard
 70
     0
340
55
  0
DIMSTYLE
105
59
330
A
100
AcDbSymbolTableRecord
100
AcDbDimStyleTableRecord
  2
Annotative
 70
     0
340
55
1001
AcadAnnotative
1000
AnnotativeData
1002
{
1070
     1
1070
     1
1002
}
  0
ENDTAB
  0
TABLE
  2
BLOCK_RECORD
  5
1
330
0
100
AcDbSymbolTable
 70
     3
  0
BLOCK_RECORD
  5
70
330
1
100
AcDbSymbolTableRecord
100
AcDbBlockTableRecord
  2
*Model_Space
340
73
 70
     0
280
     1
281
     0
  0
BLOCK_RECORD
  5
6C
330
1
100
AcDbSymbolTableRecord
100
AcDbBlockTableRecord
  2
*Paper_Space
340
6F
 70
     0
280
     1
281
     0
  0
BLOCK_RECORD
  5
74
330
1
100
AcDbSymbolTableRecord
100
AcDbBlockTableRecord
  2
*Paper_Space0
340
77
 70
     0
280
     1
281
     0
  0
BLOCK_RECORD
  5
104
330
1
100
AcDbSymbolTableRecord
100
AcDbBlockTableRecord
  2
Block_0
340
0
102
{BLKREFS
331
105
102
}
 70
     0
280
     1
281
     0
  0
BLOCK_RECORD
  5
117
330
1
100
AcDbSymbolTableRecord
100
AcDbBlockTableRecord
  2
Block_1
340
0
102
{BLKREFS
331
118
102
}
 70
     0
280
     1
281
     0
  0
ENDTAB
  0
ENDSEC
  0
SECTION
  2
BLOCKS
  0
BLOCK
  5
71
330
70
100
AcDbEntity
  8
0
100
AcDbBlockBegin
  2
*Model_Space
 70
     0
 10
0.0
 20
0.0
 30
0.0
  3
*Model_Space
  1

  0
ENDBLK
  5
72
330
70
100
AcDbEntity
  8
0
100
AcDbBlockEnd
  0
BLOCK
  5
6D
330
6C
100
AcDbEntity
 67
     1
  8
0
100
AcDbBlockBegin
  2
*Paper_Space
 70
     0
 10
0.0
 20
0.0
 30
0.0
  3
*Paper_Space
  1

  0
ENDBLK
  5
6E
330
6C
100
AcDbEntity
 67
     1
  8
0
100
AcDbBlockEnd
  0
BLOCK
  5
75
330
74
100
AcDbEntity
 67
     1
  8
0
100
AcDbBlockBegin
  2
*Paper_Space0
 70
     0
 10
0.0
 20
0.0
 30
0.0
  3
*Paper_Space0
  1

  0
ENDBLK
  5
76
330
74
100
AcDbEntity
 67
     1
  8
0
100
AcDbBlockEnd
  0
BLOCK
  5
106
330
104
100
AcDbEntity
  8
0
100
AcDbBlockBegin
  2
Block_0
 70
     0
 10
0.0
 20
0.0
 30
0.0
  3
Block_0
  1

  0
SPLINE
  5
108
330
104
100
AcDbEntity
  8
0
 62
    18
420
        0
370
    35
100
AcDbSpline
210
0.0
220
0.0
230
1.0
 70
     9
 71
     3
 72
    53
 73
    49
 74
     0
 42
0.0000000001
 43
0.0000000001
 40
0.0
 40
0.0
 40
0.0
 40
0.0
 40
1.0
 40
1.0
 40
1.0
 40
2.0
 40
2.0
 40
2.0
 40
3.0
 40
3.0
 40
3.0
 40
4.0
 40
4.0
 40
4.0
 40
5.0
 40
5.0
 40
5.0
 40
6.0
 40
6.0
 40
6.0
 40
7.0
 40
7.0
 40
7.0
 40
8.0
 40
8.0
 40
8.0
 40
9.0
 40
9.0
 40
9.0
 40
10.0
 40
10.0
 40
10.0
 40
11.0
 40
11.0
 40
11.0
 40
12.0
 40
12.0
 40
12.0
 40
13.0
 40
13.0
 40
13.0
 40
14.0
 40
14.0
 40
14.0
 40
15.0
 40
15.0
 40
15.0
 40
16.0
 40
16.0
 40
16.0
 40
16.0
 10
0.5176866319444445
 20
1.549275716145833
 30
0.0
 10
0.5076022677951389
 20
1.526231553819444
 30
0.0
 10
0.4943508572048611
 20
1.505628797743055
 30
0.0
 10
0.4779324001736111
 20
1.487481011284722
 30
0.0
 10
0.4615139431423611
 20
1.469333224826388
 30
0.0
 10
0.4423489040798611
 20
1.452338324652777
 30
0.0
 10
0.4204576280381945
 20
1.436496310763888
 30
0.0
 10
0.3985527886284722
 20
1.420640733506944
 30
0.0
 10
0.3760850694444444
 20
1.40322536892361
 30
0.0
 10
0.3530476888020833
 20
1.384209526909722
 30
0.0
 10
0.3530476888020833
 20
1.384209526909722
 30
0.0
 10
0.1897040473090278
 20
1.383341471354166
 30
0.0
 10
0.1897040473090278
 20
1.383341471354166
 30
0.0
 10
0.2081366644965278
 20
1.3983154296875
 30
0.0
 10
0.2301771375868055
 20
1.41445583767361
 30
0.0
 10
0.2558186848958333
 20
1.431735568576388
 30
0.0
 10
0.2814534505208333
 20
1.449028862847222
 30
0.0
 10
0.3060845269097222
 20
1.467610677083333
 30
0.0
 10
0.3297119140625
 20
1.487481011284722
 30
0.0
 10
0.35333251953125
 20
1.507364908854166
 30
0.0
 10
0.3733588324652777
 20
1.528537326388888
 30
0.0
 10
0.3897772894965277
 20
1.551011827256944
 30
0.0
 10
0.4061957465277778
 20
1.573472764756944
 30
0.0
 10
0.4144083658854166
 20
1.597384982638888
 30
0.0
 10
0.4144083658854166
 20
1.622734917534722
 30
0.0
 10
0.4144083658854166
 20
1.632527669270833
 30
0.0
 10
0.4142591688368056
 20
1.6416015625
 30
0.0
 10
0.4139743381076389
 20
1.649970160590277
 30
0.0
 10
0.4136827256944445
 20
1.658311631944444
 30
0.0
 10
0.4123806423611111
 20
1.66579861111111
 30
0.0
 10
0.4100884331597223
 20
1.672431098090277
 30
0.0
 10
0.40777587890625
 20
1.679050021701388
 30
0.0
 10
0.4040391710069445
 20
1.684665256076388
 30
0.0
 10
0.3988511827256944
 20
1.689290364583333
 30
0.0
 10
0.3936699761284722
 20
1.693888346354166
 30
0.0
 10
0.38616943359375
 20
1.697062174479166
 30
0.0
 10
0.3763834635416666
 20
1.698798285590277
 30
0.0
 10
0.3763834635416666
 20
1.698798285590277
 30
0.0
 10
0.3763834635416666
 20
1.810275607638888
 30
0.0
 10
0.3763834635416666
 20
1.810275607638888
 30
0.0
 10
0.4299655490451389
 20
1.806247287326388
 30
0.0
 10
0.46942138671875
 20
1.7896728515625
 30
0.0
 10
0.4947848849826389
 20
1.760592990451388
 30
0.0
 10
0.5201280381944445
 20
1.731486002604166
 30
0.0
 10
0.5328097873263889
 20
1.68899197048611
 30
0.0
 10
0.5328097873263889
 20
1.633110894097222
 30
0.0
 10
0.5328097873263889
 20
1.600273980034722
 30
0.0
 10
0.5277574327256945
 20
1.572319878472222
 30
0.0
 10
0.5176866319444445
 20
1.549275716145833
 30
0.0
  0
SPLINE
  5
109
330
104
100
AcDbEntity
  8
0
 62
    18
420
        0
370
    35
100
AcDbSpline
210
0.0
220
0.0
230
1.0
 70
    11
 71
     3
 72
    17
 73
    13
 74
     0
 42
0.0000000001
 43
0.0000000001
 40
0.0
 40
0.0
 40
0.0
 40
0.0
 40
1.0
 40
1.0
 40
1.0
 40
2.0
 40
2.0
 40
2.0
 40
3.0
 40
3.0
 40
3.0
 40
4.0
 40
4.0
 40
4.0
 40
4.0
 10
0.1378512912326389
 20
1.211357964409722
 30
0.0
 10
0.1378512912326389
 20
1.211357964409722
 30
0.0
 10
0.1378512912326389
 20
1.318522135416666
 30
0.0
 10
0.1378512912326389
 20
1.318522135416666
 30
0.0
 10
0.1378512912326389
 20
1.318522135416666
 30
0.0
 10
0.5440470377604166
 20
1.318522135416666
 30
0.0
 10
0.5440470377604166
 20
1.318522135416666
 30
0.0
 10
0.5440470377604166
 20
1.318522135416666
 30
0.0
 10
0.5440470377604166
 20
1.211357964409722
 30
0.0
 10
0.5440470377604166
 20
1.211357964409722
 30
0.0
 10
0.5440470377604166
 20
1.211357964409722
 30
0.0
 10
0.1378512912326389
 20
1.211357964409722
 30
0.0
 10
0.1378512912326389
 20
1.211357964409722
 30
0.0
  0
SPLINE
  5
10A
330
104
100
AcDbEntity
  8
0
 62
    18
420
        0
370
    35
100
AcDbSpline
210
0.0
220
0.0
230
1.0
 70
     9
 71
     3
 72
    41
 73
    37
 74
     0
 42
0.0000000001
 43
0.0000000001
 40
0.0
 40
0.0
 40
0.0
 40
0.0
 40
1.0
 40
1.0
 40
1.0
 40
2.0
 40
2.0
 40
2.0
 40
3.0
 40
3.0
 40
3.0
 40
4.0
 40
4.0
 40
4.0
 40
5.0
 40
5.0
 40
5.0
 40
6.0
 40
6.0
 40
6.0
 40
7.0
 40
7.0
 40
7.0
 40
8.0
 40
8.0
 40
8.0
 40
9.0
 40
9.0
 40
9.0
 40
10.0
 40
10.0
 40
10.0
 40
11.0
 40
11.0
 40
11.0
 40
12.0
 40
12.0
 40
12.0
 40
12.0
 10
0.2735392252604166
 20
1.68496365017361
 30
0.0
 10
0.2660454644097222
 20
1.678046332465277
 30
0.0
 10
0.26129150390625
 20
1.669406467013888
 30
0.0
 10
0.25927734375
 20
1.659044053819444
 30
0.0
 10
0.2572496202256944
 20
1.648668077256944
 30
0.0
 10
0.2566867404513889
 20
1.637003580729166
 30
0.0
 10
0.2575480143229166
 20
1.624037000868055
 30
0.0
 10
0.2584092881944444
 20
1.611070421006944
 30
0.0
 10
0.2588433159722222
 20
1.59768337673611
 30
0.0
 10
0.2588433159722222
 20
1.583848741319444
 30
0.0
 10
0.2588433159722222
 20
1.583848741319444
 30
0.0
 10
0.1378512912326389
 20
1.588175455729166
 30
0.0
 10
0.1378512912326389
 20
1.588175455729166
 30
0.0
 10
0.1384141710069444
 20
1.591050889756944
 30
0.0
 10
0.1387125651041666
 20
1.593641493055555
 30
0.0
 10
0.1387125651041666
 20
1.595947265625
 30
0.0
 10
0.1387125651041666
 20
1.598239474826388
 30
0.0
 10
0.1389973958333333
 20
1.600830078125
 30
0.0
 10
0.1395806206597222
 20
1.603732638888888
 30
0.0
 10
0.1418728298611111
 20
1.634833441840277
 30
0.0
 10
0.14605712890625
 20
1.662339952256944
 30
0.0
 10
0.1521131727430556
 20
1.686265733506944
 30
0.0
 10
0.1581624348958333
 20
1.710164388020833
 30
0.0
 10
0.1675211588541666
 20
1.730767144097222
 30
0.0
 10
0.1801961263020833
 20
1.748060438368055
 30
0.0
 10
0.1928643120659722
 20
1.765340169270833
 30
0.0
 10
0.2095811631944444
 20
1.7791748046875
 30
0.0
 10
0.2303263346354166
 20
1.789537217881944
 30
0.0
 10
0.2510647243923611
 20
1.799913194444444
 30
0.0
 10
0.2772759331597222
 20
1.807101779513888
 30
0.0
 10
0.3089735243055555
 20
1.811143663194444
 30
0.0
 10
0.3089735243055555
 20
1.811143663194444
 30
0.0
 10
0.3089735243055555
 20
1.699652777777777
 30
0.0
 10
0.3089735243055555
 20
1.699652777777777
 30
0.0
 10
0.2928331163194444
 20
1.696763780381944
 30
0.0
 10
0.2810194227430555
 20
1.691880967881944
 30
0.0
 10
0.2735392252604166
 20
1.68496365017361
 30
0.0
  0
SPLINE
  5
10B
330
104
100
AcDbEntity
  8
0
 62
    18
420
        0
370
    35
100
AcDbSpline
210
0.0
220
0.0
230
1.0
 70
     9
 71
     3
 72
    59
 73
    55
 74
     0
 42
0.0000000001
 43
0.0000000001
 40
0.0
 40
0.0
 40
0.0
 40
0.0
 40
1.0
 40
1.0
 40
1.0
 40
2.0
 40
2.0
 40
2.0
 40
3.0
 40
3.0
 40
3.0
 40
4.0
 40
4.0
 40
4.0
 40
5.0
 40
5.0
 40
5.0
 40
6.0
 40
6.0
 40
6.0
 40
7.0
 40
7.0
 40
7.0
 40
8.0
 40
8.0
 40
8.0
 40
9.0
 40
9.0
 40
9.0
 40
10.0
 40
10.0
 40
10.0
 40
11.0
 40
11.0
 40
11.0
 40
12.0
 40
12.0
 40
12.0
 40
13.0
 40
13.0
 40
13.0
 40
14.0
 40
14.0
 40
14.0
 40
15.0
 40
15.0
 40
15.0
 40
16.0
 40
16.0
 40
16.0
 40
17.0
 40
17.0
 40
17.0
 40
18.0
 40
18.0
 40
18.0
 40
18.0
 10
0.9925876193576389
 20
1.272718641493055
 30
0.0
 10
0.9643486870659721
 20
1.236992730034722
 30
0.0
 10
0.918545193142361
 20
1.2142333984375
 30
0.0
 10
0.8551703559027776
 20
1.204440646701388
 30
0.0
 10
0.8551703559027776
 20
1.204440646701388
 30
0.0
 10
0.8551703559027776
 20
1.307291666666666
 30
0.0
 10
0.8551703559027776
 20
1.307291666666666
 30
0.0
 10
0.8684217664930555
 20
1.312472873263888
 30
0.0
 10
0.8790757921006944
 20
1.318372938368055
 30
0.0
 10
0.88714599609375
 20
1.325005425347222
 30
0.0
 10
0.8952094184027776
 20
1.331624348958333
 30
0.0
 10
0.9012586805555555
 20
1.339396158854166
 30
0.0
 10
0.905300564236111
 20
1.348347981770833
 30
0.0
 10
0.9093221028645832
 20
1.357272677951388
 30
0.0
 10
0.9119127061631944
 20
1.367485894097222
 30
0.0
 10
0.9130791558159721
 20
1.3790283203125
 30
0.0
 10
0.9142252604166666
 20
1.390543619791666
 30
0.0
 10
0.9148084852430555
 20
1.403781467013888
 30
0.0
 10
0.9148084852430555
 20
1.418782552083333
 30
0.0
 10
0.9148084852430555
 20
1.432603624131944
 30
0.0
 10
0.9140760633680555
 20
1.444986979166666
 30
0.0
 10
0.9126451280381944
 20
1.455946180555555
 30
0.0
 10
0.9112006293402776
 20
1.466878255208333
 30
0.0
 10
0.9084608289930555
 20
1.476250542534722
 30
0.0
 10
0.9044325086805555
 20
1.484022352430555
 30
0.0
 10
0.9003974066840276
 20
1.491807725694444
 30
0.0
 10
0.89434814453125
 20
1.498426649305555
 30
0.0
 10
0.8862847222222221
 20
1.50390625
 30
0.0
 10
0.8782077365451389
 20
1.509372287326388
 30
0.0
 10
0.8678385416666666
 20
1.513848198784722
 30
0.0
 10
0.8551703559027776
 20
1.517306857638888
 30
0.0
 10
0.8551703559027776
 20
1.517306857638888
 30
0.0
 10
0.8551703559027776
 20
1.6175537109375
 30
0.0
 10
0.8551703559027776
 20
1.6175537109375
 30
0.0
 10
0.8591986762152776
 20
1.618123372395833
 30
0.0
 10
0.8629489474826389
 20
1.618421766493055
 30
0.0
 10
0.8664076063368055
 20
1.618421766493055
 30
0.0
 10
0.8704291449652776
 20
1.618421766493055
 30
0.0
 10
0.8744710286458332
 20
1.618421766493055
 30
0.0
 10
0.878506130642361
 20
1.618421766493055
 30
0.0
 10
0.9050021701388889
 20
1.618421766493055
 30
0.0
 10
0.9280531141493055
 20
1.613091362847222
 30
0.0
 10
0.9476453993055555
 20
1.602430555555555
 30
0.0
 10
0.96722412109375
 20
1.591756184895833
 30
0.0
 10
0.9835137261284721
 20
1.577650282118055
 30
0.0
 10
0.9964735243055555
 20
1.56008572048611
 30
0.0
 10
1.009440104166666
 20
1.542494032118055
 30
0.0
 10
1.019083658854166
 20
1.522054036458333
 30
0.0
 10
1.025431315104166
 20
1.498725043402777
 30
0.0
 10
1.031765407986111
 20
1.475382486979166
 30
0.0
 10
1.034932454427083
 20
1.451036241319444
 30
0.0
 10
1.034932454427083
 20
1.42568630642361
 30
0.0
 10
1.034932454427083
 20
1.359429253472222
 30
0.0
 10
1.02081298828125
 20
1.308430989583333
 30
0.0
 10
0.9925876193576389
 20
1.272718641493055
 30
0.0
  0
SPLINE
  5
10C
330
104
100
AcDbEntity
  8
0
 62
    18
420
        0
370
    35
100
AcDbSpline
210
0.0
220
0.0
230
1.0
 70
    11
 71
     3
 72
    17
 73
    13
 74
     0
 42
0.0000000001
 43
0.0000000001
 40
0.0
 40
0.0
 40
0.0
 40
0.0
 40
1.0
 40
1.0
 40
1.0
 40
2.0
 40
2.0
 40
2.0
 40
3.0
 40
3.0
 40
3.0
 40
4.0
 40
4.0
 40
4.0
 40
4.0
 10
1.00555419921875
 20
1.6927490234375
 30
0.0
 10
1.00555419921875
 20
1.6927490234375
 30
0.0
 10
0.6624416775173611
 20
1.6927490234375
 30
0.0
 10
0.6624416775173611
 20
1.6927490234375
 30
0.0
 10
0.6624416775173611
 20
1.6927490234375
 30
0.0
 10
0.68145751953125
 20
1.8016357421875
 30
0.0
 10
0.68145751953125
 20
1.8016357421875
 30
0.0
 10
0.68145751953125
 20
1.8016357421875
 30
0.0
 10
1.01678466796875
 20
1.8016357421875
 30
0.0
 10
1.01678466796875
 20
1.8016357421875
 30
0.0
 10
1.01678466796875
 20
1.8016357421875
 30
0.0
 10
1.00555419921875
 20
1.6927490234375
 30
0.0
 10
1.00555419921875
 20
1.6927490234375
 30
0.0
  0
SPLINE
  5
10D
330
104
100
AcDbEntity
  8
0
 62
    18
420
        0
370
    35
100
AcDbSpline
210
0.0
220
0.0
230
1.0
 70
     9
 71
     3
 72
    38
 73
    34
 74
     0
 42
0.0000000001
 43
0.0000000001
 40
0.0
 40
0.0
 40
0.0
 40
0.0
 40
1.0
 40
1.0
 40
1.0
 40
2.0
 40
2.0
 40
2.0
 40
3.0
 40
3.0
 40
3.0
 40
4.0
 40
4.0
 40
4.0
 40
5.0
 40
5.0
 40
5.0
 40
6.0
 40
6.0
 40
6.0
 40
7.0
 40
7.0
 40
7.0
 40
8.0
 40
8.0
 40
8.0
 40
9.0
 40
9.0
 40
9.0
 40
10.0
 40
10.0
 40
10.0
 40
11.0
 40
11.0
 40
11.0
 40
11.0
 10
0.7877604166666666
 20
1.518161349826388
 30
0.0
 10
0.7739325629340278
 20
1.515272352430555
 30
0.0
 10
0.7635633680555555
 20
1.5111083984375
 30
0.0
 10
0.7566460503472223
 20
1.505628797743055
 30
0.0
 10
0.7497355143229166
 20
1.50014919704861
 30
0.0
 10
0.7433878580729166
 20
1.490207248263888
 30
0.0
 10
0.7376369900173611
 20
1.475816514756944
 30
0.0
 10
0.7376369900173611
 20
1.475816514756944
 30
0.0
 10
0.6261461046006945
 20
1.475816514756944
 30
0.0
 10
0.6261461046006945
 20
1.475816514756944
 30
0.0
 10
0.6261461046006945
 20
1.475816514756944
 30
0.0
 10
0.6589898003472223
 20
1.635701497395833
 30
0.0
 10
0.6589898003472223
 20
1.635701497395833
 30
0.0
 10
0.6589898003472223
 20
1.635701497395833
 30
0.0
 10
0.7635633680555555
 20
1.635701497395833
 30
0.0
 10
0.7635633680555555
 20
1.635701497395833
 30
0.0
 10
0.7635633680555555
 20
1.635701497395833
 30
0.0
 10
0.74627685546875
 20
1.589029947916666
 30
0.0
 10
0.74627685546875
 20
1.589029947916666
 30
0.0
 10
0.75146484375
 20
1.591905381944444
 30
0.0
 10
0.7553507486979166
 20
1.594645182291666
 30
0.0
 10
0.7579413519965278
 20
1.597249348958333
 30
0.0
 10
0.7605387369791666
 20
1.599839952256944
 30
0.0
 10
0.7631293402777778
 20
1.602281358506944
 30
0.0
 10
0.7657199435763889
 20
1.604587131076388
 30
0.0
 10
0.7683173285590278
 20
1.606892903645833
 30
0.0
 10
0.7713419596354166
 20
1.6087646484375
 30
0.0
 10
0.7747938368055555
 20
1.610202365451388
 30
0.0
 10
0.7782524956597223
 20
1.611640082465277
 30
0.0
 10
0.7828572591145833
 20
1.61294216579861
 30
0.0
 10
0.7886284722222223
 20
1.614095052083333
 30
0.0
 10
0.7886284722222223
 20
1.614095052083333
 30
0.0
 10
0.7877604166666666
 20
1.518161349826388
 30
0.0
 10
0.7877604166666666
 20
1.518161349826388
 30
0.0
  0
SPLINE
  5
10E
330
104
100
AcDbEntity
  8
0
 62
    18
420
        0
370
    35
100
AcDbSpline
210
0.0
220
0.0
230
1.0
 70
     9
 71
     3
 72
    47
 73
    43
 74
     0
 42
0.0000000001
 43
0.0000000001
 40
0.0
 40
0.0
 40
0.0
 40
0.0
 40
1.0
 40
1.0
 40
1.0
 40
2.0
 40
2.0
 40
2.0
 40
3.0
 40
3.0
 40
3.0
 40
4.0
 40
4.0
 40
4.0
 40
5.0
 40
5.0
 40
5.0
 40
6.0
 40
6.0
 40
6.0
 40
7.0
 40
7.0
 40
7.0
 40
8.0
 40
8.0
 40
8.0
 40
9.0
 40
9.0
 40
9.0
 40
10.0
 40
10.0
 40
10.0
 40
11.0
 40
11.0
 40
11.0
 40
12.0
 40
12.0
 40
12.0
 40
13.0
 40
13.0
 40
13.0
 40
14.0
 40
14.0
 40
14.0
 40
14.0
 10
0.7782524956597223
 20
1.203586154513888
 30
0.0
 10
0.7511664496527778
 20
1.203586154513888
 30
0.0
 10
0.7273966471354166
 20
1.208333333333333
 30
0.0
 10
0.7069566514756945
 20
1.217841254340277
 30
0.0
 10
0.6864963107638889
 20
1.227349175347222
 30
0.0
 10
0.6689249674479166
 20
1.240315755208333
 30
0.0
 10
0.65423583984375
 20
1.256727430555555
 30
0.0
 10
0.6395399305555555
 20
1.273152669270833
 30
0.0
 10
0.6278754340277778
 20
1.2926025390625
 30
0.0
 10
0.6192355685763889
 20
1.3150634765625
 30
0.0
 10
0.6105889214409723
 20
1.337537977430555
 30
0.0
 10
0.6051093207465278
 20
1.361735026041666
 30
0.0
 10
0.6028103298611111
 20
1.387668185763888
 30
0.0
 10
0.6028103298611111
 20
1.387668185763888
 30
0.0
 10
0.7220798068576389
 20
1.393717447916666
 30
0.0
 10
0.7220798068576389
 20
1.393717447916666
 30
0.0
 10
0.7220798068576389
 20
1.393717447916666
 30
0.0
 10
0.7220798068576389
 20
1.394571940104166
 30
0.0
 10
0.7220798068576389
 20
1.394571940104166
 30
0.0
 10
0.7220798068576389
 20
1.394571940104166
 30
0.0
 10
0.7229410807291666
 20
1.393717447916666
 30
0.0
 10
0.7229410807291666
 20
1.393717447916666
 30
0.0
 10
0.7229410807291666
 20
1.393717447916666
 30
0.0
 10
0.7220798068576389
 20
1.393717447916666
 30
0.0
 10
0.7220798068576389
 20
1.393717447916666
 30
0.0
 10
0.7238091362847223
 20
1.3798828125
 30
0.0
 10
0.7256673177083333
 20
1.367784288194444
 30
0.0
 10
0.7276950412326389
 20
1.357421875
 30
0.0
 10
0.7297092013888889
 20
1.3470458984375
 30
0.0
 10
0.7328830295138889
 20
1.338107638888888
 30
0.0
 10
0.7372029622395833
 20
1.330620659722222
 30
0.0
 10
0.7415228949652778
 20
1.323133680555555
 30
0.0
 10
0.7477077907986111
 20
1.317233615451388
 30
0.0
 10
0.7557847764756945
 20
1.312906901041666
 30
0.0
 10
0.7638481987847223
 20
1.308580186631944
 30
0.0
 10
0.7750786675347223
 20
1.305840386284722
 30
0.0
 10
0.78948974609375
 20
1.304701063368055
 30
0.0
 10
0.78948974609375
 20
1.304701063368055
 30
0.0
 10
0.78948974609375
 20
1.203586154513888
 30
0.0
 10
0.78948974609375
 20
1.203586154513888
 30
0.0
 10
0.78948974609375
 20
1.203586154513888
 30
0.0
 10
0.7782524956597223
 20
1.203586154513888
 30
0.0
 10
0.7782524956597223
 20
1.203586154513888
 30
0.0
  0
SPLINE
  5
10F
330
104
100
AcDbEntity
  8
0
 62
    18
420
        0
370
    35
100
AcDbSpline
210
0.0
220
0.0
230
1.0
 70
    11
 71
     3
 72
    17
 73
    13
 74
     0
 42
0.0000000001
 43
0.0000000001
 40
0.0
 40
0.0
 40
0.0
 40
0.0
 40
1.0
 40
1.0
 40
1.0
 40
2.0
 40
2.0
 40
2.0
 40
3.0
 40
3.0
 40
3.0
 40
4.0
 40
4.0
 40
4.0
 40
4.0
 10
1.115302191840277
 20
1.211357964409722
 30
0.0
 10
1.115302191840277
 20
1.211357964409722
 30
0.0
 10
1.115302191840277
 20
1.33926052517361
 30
0.0
 10
1.115302191840277
 20
1.33926052517361
 30
0.0
 10
1.115302191840277
 20
1.33926052517361
 30
0.0
 10
1.240614149305555
 20
1.33926052517361
 30
0.0
 10
1.240614149305555
 20
1.33926052517361
 30
0.0
 10
1.240614149305555
 20
1.33926052517361
 30
0.0
 10
1.242343478732638
 20
1.211357964409722
 30
0.0
 10
1.242343478732638
 20
1.211357964409722
 30
0.0
 10
1.242343478732638
 20
1.211357964409722
 30
0.0
 10
1.115302191840277
 20
1.211357964409722
 30
0.0
 10
1.115302191840277
 20
1.211357964409722
 30
0.0
  0
SPLINE
  5
110
330
104
100
AcDbEntity
  8
0
 62
    18
420
        0
370
    35
100
AcDbSpline
210
0.0
220
0.0
230
1.0
 70
     9
 71
     3
 72
    59
 73
    55
 74
     0
 42
0.0000000001
 43
0.0000000001
 40
0.0
 40
0.0
 40
0.0
 40
0.0
 40
1.0
 40
1.0
 40
1.0
 40
2.0
 40
2.0
 40
2.0
 40
3.0
 40
3.0
 40
3.0
 40
4.0
 40
4.0
 40
4.0
 40
5.0
 40
5.0
 40
5.0
 40
6.0
 40
6.0
 40
6.0
 40
7.0
 40
7.0
 40
7.0
 40
8.0
 40
8.0
 40
8.0
 40
9.0
 40
9.0
 40
9.0
 40
10.0
 40
10.0
 40
10.0
 40
11.0
 40
11.0
 40
11.0
 40
12.0
 40
12.0
 40
12.0
 40
13.0
 40
13.0
 40
13.0
 40
14.0
 40
14.0
 40
14.0
 40
15.0
 40
15.0
 40
15.0
 40
16.0
 40
16.0
 40
16.0
 40
17.0
 40
17.0
 40
17.0
 40
18.0
 40
18.0
 40
18.0
 40
18.0
 10
1.747063530815972
 20
1.272718641493055
 30
0.0
 10
1.718824598524305
 20
1.236992730034722
 30
0.0
 10
1.673021104600694
 20
1.2142333984375
 30
0.0
 10
1.60964626736111
 20
1.204440646701388
 30
0.0
 10
1.60964626736111
 20
1.204440646701388
 30
0.0
 10
1.60964626736111
 20
1.307291666666666
 30
0.0
 10
1.60964626736111
 20
1.307291666666666
 30
0.0
 10
1.622897677951388
 20
1.312472873263888
 30
0.0
 10
1.633551703559027
 20
1.318372938368055
 30
0.0
 10
1.641621907552083
 20
1.325005425347222
 30
0.0
 10
1.64968532986111
 20
1.331624348958333
 30
0.0
 10
1.655734592013888
 20
1.339396158854166
 30
0.0
 10
1.659776475694444
 20
1.348347981770833
 30
0.0
 10
1.663798014322916
 20
1.357272677951388
 30
0.0
 10
1.666388617621527
 20
1.367485894097222
 30
0.0
 10
1.667555067274305
 20
1.3790283203125
 30
0.0
 10
1.668701171875
 20
1.390543619791666
 30
0.0
 10
1.669284396701388
 20
1.403781467013888
 30
0.0
 10
1.669284396701388
 20
1.418782552083333
 30
0.0
 10
1.669284396701388
 20
1.432603624131944
 30
0.0
 10
1.668551974826388
 20
1.444986979166666
 30
0.0
 10
1.667121039496527
 20
1.455946180555555
 30
0.0
 10
1.66567654079861
 20
1.466878255208333
 30
0.0
 10
1.662936740451388
 20
1.476250542534722
 30
0.0
 10
1.658908420138888
 20
1.484022352430555
 30
0.0
 10
1.65487331814236
 20
1.491807725694444
 30
0.0
 10
1.648824055989583
 20
1.498426649305555
 30
0.0
 10
1.640760633680555
 20
1.50390625
 30
0.0
 10
1.632683648003472
 20
1.509372287326388
 30
0.0
 10
1.622314453125
 20
1.513848198784722
 30
0.0
 10
1.60964626736111
 20
1.517306857638888
 30
0.0
 10
1.60964626736111
 20
1.517306857638888
 30
0.0
 10
1.60964626736111
 20
1.6175537109375
 30
0.0
 10
1.60964626736111
 20
1.6175537109375
 30
0.0
 10
1.61367458767361
 20
1.618123372395833
 30
0.0
 10
1.617424858940972
 20
1.618421766493055
 30
0.0
 10
1.620883517795138
 20
1.618421766493055
 30
0.0
 10
1.62490505642361
 20
1.618421766493055
 30
0.0
 10
1.628946940104166
 20
1.618421766493055
 30
0.0
 10
1.632982042100694
 20
1.618421766493055
 30
0.0
 10
1.659478081597222
 20
1.618421766493055
 30
0.0
 10
1.682529025607638
 20
1.613091362847222
 30
0.0
 10
1.702121310763888
 20
1.602430555555555
 30
0.0
 10
1.721700032552083
 20
1.591756184895833
 30
0.0
 10
1.737989637586805
 20
1.577650282118055
 30
0.0
 10
1.750949435763888
 20
1.56008572048611
 30
0.0
 10
1.763916015625
 20
1.542494032118055
 30
0.0
 10
1.7735595703125
 20
1.522054036458333
 30
0.0
 10
1.7799072265625
 20
1.498725043402777
 30
0.0
 10
1.786241319444444
 20
1.475382486979166
 30
0.0
 10
1.789408365885416
 20
1.451036241319444
 30
0.0
 10
1.789408365885416
 20
1.42568630642361
 30
0.0
 10
1.789408365885416
 20
1.359429253472222
 30
0.0
 10
1.775288899739583
 20
1.308430989583333
 30
0.0
 10
1.747063530815972
 20
1.272718641493055
 30
0.0
  0
SPLINE
  5
111
330
104
100
AcDbEntity
  8
0
 62
    18
420
        0
370
    35
100
AcDbSpline
210
0.0
220
0.0
230
1.0
 70
    11
 71
     3
 72
    17
 73
    13
 74
     0
 42
0.0000000001
 43
0.0000000001
 40
0.0
 40
0.0
 40
0.0
 40
0.0
 40
1.0
 40
1.0
 40
1.0
 40
2.0
 40
2.0
 40
2.0
 40
3.0
 40
3.0
 40
3.0
 40
4.0
 40
4.0
 40
4.0
 40
4.0
 10
1.760030110677083
 20
1.6927490234375
 30
0.0
 10
1.760030110677083
 20
1.6927490234375
 30
0.0
 10
1.416917588975694
 20
1.6927490234375
 30
0.0
 10
1.416917588975694
 20
1.6927490234375
 30
0.0
 10
1.416917588975694
 20
1.6927490234375
 30
0.0
 10
1.435933430989583
 20
1.8016357421875
 30
0.0
 10
1.435933430989583
 20
1.8016357421875
 30
0.0
 10
1.435933430989583
 20
1.8016357421875
 30
0.0
 10
1.771260579427083
 20
1.8016357421875
 30
0.0
 10
1.771260579427083
 20
1.8016357421875
 30
0.0
 10
1.771260579427083
 20
1.8016357421875
 30
0.0
 10
1.760030110677083
 20
1.6927490234375
 30
0.0
 10
1.760030110677083
 20
1.6927490234375
 30
0.0
  0
SPLINE
  5
112
330
104
100
AcDbEntity
  8
0
 62
    18
420
        0
370
    35
100
AcDbSpline
210
0.0
220
0.0
230
1.0
 70
     9
 71
     3
 72
    38
 73
    34
 74
     0
 42
0.0000000001
 43
0.0000000001
 40
0.0
 40
0.0
 40
0.0
 40
0.0
 40
1.0
 40
1.0
 40
1.0
 40
2.0
 40
2.0
 40
2.0
 40
3.0
 40
3.0
 40
3.0
 40
4.0
 40
4.0
 40
4.0
 40
5.0
 40
5.0
 40
5.0
 40
6.0
 40
6.0
 40
6.0
 40
7.0
 40
7.0
 40
7.0
 40
8.0
 40
8.0
 40
8.0
 40
9.0
 40
9.0
 40
9.0
 40
10.0
 40
10.0
 40
10.0
 40
11.0
 40
11.0
 40
11.0
 40
11.0
 10
1.542236328125
 20
1.518161349826388
 30
0.0
 10
1.52840847439236
 20
1.515272352430555
 30
0.0
 10
1.518039279513888
 20
1.5111083984375
 30
0.0
 10
1.511121961805555
 20
1.505628797743055
 30
0.0
 10
1.50421142578125
 20
1.50014919704861
 30
0.0
 10
1.49786376953125
 20
1.490207248263888
 30
0.0
 10
1.492112901475694
 20
1.475816514756944
 30
0.0
 10
1.492112901475694
 20
1.475816514756944
 30
0.0
 10
1.380622016059027
 20
1.475816514756944
 30
0.0
 10
1.380622016059027
 20
1.475816514756944
 30
0.0
 10
1.380622016059027
 20
1.475816514756944
 30
0.0
 10
1.413465711805555
 20
1.635701497395833
 30
0.0
 10
1.413465711805555
 20
1.635701497395833
 30
0.0
 10
1.413465711805555
 20
1.635701497395833
 30
0.0
 10
1.518039279513888
 20
1.635701497395833
 30
0.0
 10
1.518039279513888
 20
1.635701497395833
 30
0.0
 10
1.518039279513888
 20
1.635701497395833
 30
0.0
 10
1.500752766927083
 20
1.589029947916666
 30
0.0
 10
1.500752766927083
 20
1.589029947916666
 30
0.0
 10
1.505940755208333
 20
1.591905381944444
 30
0.0
 10
1.50982666015625
 20
1.594645182291666
 30
0.0
 10
1.51241726345486
 20
1.597249348958333
 30
0.0
 10
1.5150146484375
 20
1.599839952256944
 30
0.0
 10
1.51760525173611
 20
1.602281358506944
 30
0.0
 10
1.520195855034722
 20
1.604587131076388
 30
0.0
 10
1.52279324001736
 20
1.606892903645833
 30
0.0
 10
1.52581787109375
 20
1.6087646484375
 30
0.0
 10
1.529269748263888
 20
1.610202365451388
 30
0.0
 10
1.532728407118055
 20
1.611640082465277
 30
0.0
 10
1.537333170572916
 20
1.61294216579861
 30
0.0
 10
1.543104383680555
 20
1.614095052083333
 30
0.0
 10
1.543104383680555
 20
1.614095052083333
 30
0.0
 10
1.542236328125
 20
1.518161349826388
 30
0.0
 10
1.542236328125
 20
1.518161349826388
 30
0.0
  0
SPLINE
  5
113
330
104
100
AcDbEntity
  8
0
 62
    18
420
        0
370
    35
100
AcDbSpline
210
0.0
220
0.0
230
1.0
 70
     9
 71
     3
 72
    47
 73
    43
 74
     0
 42
0.0000000001
 43
0.0000000001
 40
0.0
 40
0.0
 40
0.0
 40
0.0
 40
1.0
 40
1.0
 40
1.0
 40
2.0
 40
2.0
 40
2.0
 40
3.0
 40
3.0
 40
3.0
 40
4.0
 40
4.0
 40
4.0
 40
5.0
 40
5.0
 40
5.0
 40
6.0
 40
6.0
 40
6.0
 40
7.0
 40
7.0
 40
7.0
 40
8.0
 40
8.0
 40
8.0
 40
9.0
 40
9.0
 40
9.0
 40
10.0
 40
10.0
 40
10.0
 40
11.0
 40
11.0
 40
11.0
 40
12.0
 40
12.0
 40
12.0
 40
13.0
 40
13.0
 40
13.0
 40
14.0
 40
14.0
 40
14.0
 40
14.0
 10
1.532728407118055
 20
1.203586154513888
 30
0.0
 10
1.50564236111111
 20
1.203586154513888
 30
0.0
 10
1.48187255859375
 20
1.208333333333333
 30
0.0
 10
1.461432562934027
 20
1.217841254340277
 30
0.0
 10
1.440972222222222
 20
1.227349175347222
 30
0.0
 10
1.42340087890625
 20
1.240315755208333
 30
0.0
 10
1.408711751302083
 20
1.256727430555555
 30
0.0
 10
1.394015842013888
 20
1.273152669270833
 30
0.0
 10
1.38235134548611
 20
1.2926025390625
 30
0.0
 10
1.373711480034722
 20
1.3150634765625
 30
0.0
 10
1.365064832899305
 20
1.337537977430555
 30
0.0
 10
1.35958523220486
 20
1.361735026041666
 30
0.0
 10
1.357286241319444
 20
1.387668185763888
 30
0.0
 10
1.357286241319444
 20
1.387668185763888
 30
0.0
 10
1.476555718315972
 20
1.393717447916666
 30
0.0
 10
1.476555718315972
 20
1.393717447916666
 30
0.0
 10
1.476555718315972
 20
1.393717447916666
 30
0.0
 10
1.476555718315972
 20
1.394571940104166
 30
0.0
 10
1.476555718315972
 20
1.394571940104166
 30
0.0
 10
1.476555718315972
 20
1.394571940104166
 30
0.0
 10
1.4774169921875
 20
1.393717447916666
 30
0.0
 10
1.4774169921875
 20
1.393717447916666
 30
0.0
 10
1.4774169921875
 20
1.393717447916666
 30
0.0
 10
1.476555718315972
 20
1.393717447916666
 30
0.0
 10
1.476555718315972
 20
1.393717447916666
 30
0.0
 10
1.478285047743055
 20
1.3798828125
 30
0.0
 10
1.480143229166666
 20
1.367784288194444
 30
0.0
 10
1.482170952690972
 20
1.357421875
 30
0.0
 10
1.484185112847222
 20
1.3470458984375
 30
0.0
 10
1.487358940972222
 20
1.338107638888888
 30
0.0
 10
1.491678873697916
 20
1.330620659722222
 30
0.0
 10
1.49599880642361
 20
1.323133680555555
 30
0.0
 10
1.502183702256944
 20
1.317233615451388
 30
0.0
 10
1.510260687934027
 20
1.312906901041666
 30
0.0
 10
1.518324110243055
 20
1.308580186631944
 30
0.0
 10
1.529554578993055
 20
1.305840386284722
 30
0.0
 10
1.543965657552083
 20
1.304701063368055
 30
0.0
 10
1.543965657552083
 20
1.304701063368055
 30
0.0
 10
1.543965657552083
 20
1.203586154513888
 30
0.0
 10
1.543965657552083
 20
1.203586154513888
 30
0.0
 10
1.543965657552083
 20
1.203586154513888
 30
0.0
 10
1.532728407118055
 20
1.203586154513888
 30
0.0
 10
1.532728407118055
 20
1.203586154513888
 30
0.0
  0
SPLINE
  5
114
330
104
100
AcDbEntity
  8
0
 62
    18
420
        0
370
    35
100
AcDbSpline
210
0.0
220
0.0
230
1.0
 70
    11
 71
     3
 72
    17
 73
    13
 74
     0
 42
0.0000000001
 43
0.0000000001
 40
0.0
 40
0.0
 40
0.0
 40
0.0
 40
1.0
 40
1.0
 40
1.0
 40
2.0
 40
2.0
 40
2.0
 40
3.0
 40
3.0
 40
3.0
 40
4.0
 40
4.0
 40
4.0
 40
4.0
 10
2.307949490017361
 20
1.465440538194444
 30
0.0
 10
2.307949490017361
 20
1.465440538194444
 30
0.0
 10
2.307949490017361
 20
1.572618272569444
 30
0.0
 10
2.307949490017361
 20
1.572618272569444
 30
0.0
 10
2.307949490017361
 20
1.572618272569444
 30
0.0
 10
2.504130045572916
 20
1.572618272569444
 30
0.0
 10
2.504130045572916
 20
1.572618272569444
 30
0.0
 10
2.504130045572916
 20
1.572618272569444
 30
0.0
 10
2.504130045572916
 20
1.465440538194444
 30
0.0
 10
2.504130045572916
 20
1.465440538194444
 30
0.0
 10
2.504130045572916
 20
1.465440538194444
 30
0.0
 10
2.307949490017361
 20
1.465440538194444
 30
0.0
 10
2.307949490017361
 20
1.465440538194444
 30
0.0
  0
SPLINE
  5
115
330
104
100
AcDbEntity
  8
0
 62
    18
420
        0
370
    35
100
AcDbSpline
210
0.0
220
0.0
230
1.0
 70
    11
 71
     3
 72
    17
 73
    13
 74
     0
 42
0.0000000001
 43
0.0000000001
 40
0.0
 40
0.0
 40
0.0
 40
0.0
 40
1.0
 40
1.0
 40
1.0
 40
2.0
 40
2.0
 40
2.0
 40
3.0
 40
3.0
 40
3.0
 40
4.0
 40
4.0
 40
4.0
 40
4.0
 10
2.307949490017361
 20
1.7039794921875
 30
0.0
 10
2.307949490017361
 20
1.7039794921875
 30
0.0
 10
2.307949490017361
 20
1.817192925347222
 30
0.0
 10
2.307949490017361
 20
1.817192925347222
 30
0.0
 10
2.307949490017361
 20
1.817192925347222
 30
0.0
 10
2.542161729600694
 20
1.817192925347222
 30
0.0
 10
2.542161729600694
 20
1.817192925347222
 30
0.0
 10
2.542161729600694
 20
1.817192925347222
 30
0.0
 10
2.542161729600694
 20
1.7039794921875
 30
0.0
 10
2.542161729600694
 20
1.7039794921875
 30
0.0
 10
2.542161729600694
 20
1.7039794921875
 30
0.0
 10
2.307949490017361
 20
1.7039794921875
 30
0.0
 10
2.307949490017361
 20
1.7039794921875
 30
0.0
  0
SPLINE
  5
116
330
104
100
AcDbEntity
  8
0
 62
    18
420
        0
370
    35
100
AcDbSpline
210
0.0
220
0.0
230
1.0
 70
    11
 71
     3
 72
    17
 73
    13
 74
     0
 42
0.0000000001
 43
0.0000000001
 40
0.0
 40
0.0
 40
0.0
 40
0.0
 40
1.0
 40
1.0
 40
1.0
 40
2.0
 40
2.0
 40
2.0
 40
3.0
 40
3.0
 40
3.0
 40
4.0
 40
4.0
 40
4.0
 40
4.0
 10
2.097934299045138
 20
1.211357964409722
 30
0.0
 10
2.097934299045138
 20
1.211357964409722
 30
0.0
 10
2.097934299045138
 20
1.817192925347222
 30
0.0
 10
2.097934299045138
 20
1.817192925347222
 30
0.0
 10
2.097934299045138
 20
1.817192925347222
 30
0.0
 10
2.233622233072916
 20
1.817192925347222
 30
0.0
 10
2.233622233072916
 20
1.817192925347222
 30
0.0
 10
2.233622233072916
 20
1.817192925347222
 30
0.0
 10
2.233622233072916
 20
1.211357964409722
 30
0.0
 10
2.233622233072916
 20
1.211357964409722
 30
0.0
 10
2.233622233072916
 20
1.211357964409722
 30
0.0
 10
2.097934299045138
 20
1.211357964409722
 30
0.0
 10
2.097934299045138
 20
1.211357964409722
 30
0.0
  0
ENDBLK
  5
107
330
104
100
AcDbEntity
  8
0
100
AcDbBlockEnd
  0
BLOCK
  5
119
330
117
100
AcDbEntity
  8
0
100
AcDbBlockBegin
  2
Block_1
 70
     0
 10
0.0
 20
0.0
 30
0.0
  3
Block_1
  1

  0
SPLINE
  5
11B
330
117
100
AcDbEntity
  8
0
 62
    18
420
        0
370
    35
100
AcDbSpline
210
0.0
220
0.0
230
1.0
 70
    11
 71
     3
 72
    35
 73
    31
 74
     0
 42
0.0000000001
 43
0.0000000001
 40
0.0
 40
0.0
 40
0.0
 40
0.0
 40
1.0
 40
1.0
 40
1.0
 40
2.0
 40
2.0
 40
2.0
 40
3.0
 40
3.0
 40
3.0
 40
4.0
 40
4.0
 40
4.0
 40
5.0
 40
5.0
 40
5.0
 40
6.0
 40
6.0
 40
6.0
 40
7.0
 40
7.0
 40
7.0
 40
8.0
 40
8.0
 40
8.0
 40
9.0
 40
9.0
 40
9.0
 40
10.0
 40
10.0
 40
10.0
 40
10.0
 10
14.38608127170138
 20
1.112535264756944
 30
0.0
 10
14.38608127170138
 20
1.112535264756944
 30
0.0
 10
14.32431369357639
 20
1.112535264756944
 30
0.0
 10
14.32431369357639
 20
1.112535264756944
 30
0.0
 10
14.32470703125
 20
1.114108615451388
 30
0.0
 10
14.32491048177083
 20
1.11550564236111
 30
0.0
 10
14.32491048177083
 20
1.116685655381944
 30
0.0
 10
14.32491048177083
 20
1.118259006076388
 30
0.0
 10
14.32491048177083
 20
1.11965603298611
 30
0.0
 10
14.32491048177083
 20
1.120849609375
 30
0.0
 10
14.32491048177083
 20
1.120849609375
 30
0.0
 10
14.32491048177083
 20
1.130343967013888
 30
0.0
 10
14.32491048177083
 20
1.130343967013888
 30
0.0
 10
14.32491048177083
 20
1.135484483506944
 30
0.0
 10
14.32461208767361
 20
1.139255099826388
 30
0.0
 10
14.32401529947916
 20
1.14162868923611
 30
0.0
 10
14.32341851128472
 20
1.144002278645833
 30
0.0
 10
14.32233344184028
 20
1.145887586805555
 30
0.0
 10
14.32074652777777
 20
1.147271050347222
 30
0.0
 10
14.31917317708333
 20
1.148654513888888
 30
0.0
 10
14.3173828125
 20
1.150241427951388
 30
0.0
 10
14.31540256076389
 20
1.152031792534722
 30
0.0
 10
14.31342230902777
 20
1.15380859375
 30
0.0
 10
14.31085883246528
 20
1.156873914930555
 30
0.0
 10
14.30768500434028
 20
1.161227756076388
 30
0.0
 10
14.30768500434028
 20
1.161227756076388
 30
0.0
 10
14.38608127170138
 20
1.161227756076388
 30
0.0
 10
14.38608127170138
 20
1.161227756076388
 30
0.0
 10
14.38608127170138
 20
1.161227756076388
 30
0.0
 10
14.38608127170138
 20
1.112535264756944
 30
0.0
 10
14.38608127170138
 20
1.112535264756944
 30
0.0
  0
SPLINE
  5
11C
330
117
100
AcDbEntity
  8
0
 62
    18
420
        0
370
    35
100
AcDbSpline
210
0.0
220
0.0
230
1.0
 70
    11
 71
     3
 72
    26
 73
    22
 74
     0
 42
0.0000000001
 43
0.0000000001
 40
0.0
 40
0.0
 40
0.0
 40
0.0
 40
1.0
 40
1.0
 40
1.0
 40
2.0
 40
2.0
 40
2.0
 40
3.0
 40
3.0
 40
3.0
 40
4.0
 40
4.0
 40
4.0
 40
5.0
 40
5.0
 40
5.0
 40
6.0
 40
6.0
 40
6.0
 40
7.0
 40
7.0
 40
7.0
 40
7.0
 10
14.66167534722222
 20
1.206963433159722
 30
0.0
 10
14.66167534722222
 20
1.206963433159722
 30
0.0
 10
14.29045952690972
 20
1.206963433159722
 30
0.0
 10
14.29045952690972
 20
1.206963433159722
 30
0.0
 10
14.29045952690972
 20
1.206963433159722
 30
0.0
 10
14.28986273871528
 20
1.206963433159722
 30
0.0
 10
14.28986273871528
 20
1.206963433159722
 30
0.0
 10
14.28431532118055
 20
1.210137261284722
 30
0.0
 10
14.27867296006944
 20
1.212605794270833
 30
0.0
 10
14.27293565538194
 20
1.214396158854166
 30
0.0
 10
14.26719835069444
 20
1.216172960069444
 30
0.0
 10
14.2613525390625
 20
1.217461480034722
 30
0.0
 10
14.25541178385416
 20
1.218248155381944
 30
0.0
 10
14.25541178385416
 20
1.218248155381944
 30
0.0
 10
14.25541178385416
 20
1.29189724392361
 30
0.0
 10
14.25541178385416
 20
1.29189724392361
 30
0.0
 10
14.25541178385416
 20
1.29189724392361
 30
0.0
 10
14.66167534722222
 20
1.29189724392361
 30
0.0
 10
14.66167534722222
 20
1.29189724392361
 30
0.0
 10
14.66167534722222
 20
1.29189724392361
 30
0.0
 10
14.66167534722222
 20
1.206963433159722
 30
0.0
 10
14.66167534722222
 20
1.206963433159722
 30
0.0
  0
SPLINE
  5
11D
330
117
100
AcDbEntity
  8
0
 62
    18
420
        0
370
    35
100
AcDbSpline
210
0.0
220
0.0
230
1.0
 70
    11
 71
     3
 72
    71
 73
    67
 74
     0
 42
0.0000000001
 43
0.0000000001
 40
0.0
 40
0.0
 40
0.0
 40
0.0
 40
1.0
 40
1.0
 40
1.0
 40
2.0
 40
2.0
 40
2.0
 40
3.0
 40
3.0
 40
3.0
 40
4.0
 40
4.0
 40
4.0
 40
5.0
 40
5.0
 40
5.0
 40
6.0
 40
6.0
 40
6.0
 40
7.0
 40
7.0
 40
7.0
 40
8.0
 40
8.0
 40
8.0
 40
9.0
 40
9.0
 40
9.0
 40
10.0
 40
10.0
 40
10.0
 40
11.0
 40
11.0
 40
11.0
 40
12.0
 40
12.0
 40
12.0
 40
13.0
 40
13.0
 40
13.0
 40
14.0
 40
14.0
 40
14.0
 40
15.0
 40
15.0
 40
15.0
 40
16.0
 40
16.0
 40
16.0
 40
17.0
 40
17.0
 40
17.0
 40
18.0
 40
18.0
 40
18.0
 40
19.0
 40
19.0
 40
19.0
 40
20.0
 40
20.0
 40
20.0
 40
21.0
 40
21.0
 40
21.0
 40
22.0
 40
22.0
 40
22.0
 40
22.0
 10
14.65513780381944
 20
1.43801540798611
 30
0.0
 10
14.64841037326389
 20
1.423760308159722
 30
0.0
 10
14.63970269097222
 20
1.411878797743055
 30
0.0
 10
14.62901475694444
 20
1.40237087673611
 30
0.0
 10
14.61831325954861
 20
1.392876519097222
 30
0.0
 10
14.60594346788194
 20
1.385443793402777
 30
0.0
 10
14.59189181857639
 20
1.380099826388888
 30
0.0
 10
14.57784016927083
 20
1.374755859375
 30
0.0
 10
14.56278483072916
 20
1.370686848958333
 30
0.0
 10
14.54673936631944
 20
1.367933485243055
 30
0.0
 10
14.53070746527777
 20
1.365152994791666
 30
0.0
 10
14.5142822265625
 20
1.363376193576388
 30
0.0
 10
14.49745008680555
 20
1.36257595486111
 30
0.0
 10
14.48061794704861
 20
1.361789279513888
 30
0.0
 10
14.46389431423611
 20
1.361395941840277
 30
0.0
 10
14.44725206163194
 20
1.361395941840277
 30
0.0
 10
14.4246826171875
 20
1.361395941840277
 30
0.0
 10
14.4017333984375
 20
1.363077799479166
 30
0.0
 10
14.37836371527778
 20
1.366441514756944
 30
0.0
 10
14.35500759548611
 20
1.369805230034722
 30
0.0
 10
14.33380805121528
 20
1.376139322916666
 30
0.0
 10
14.31480577256944
 20
1.385443793402777
 30
0.0
 10
14.29580349392361
 20
1.394748263888888
 30
0.0
 10
14.28016493055555
 20
1.407728407118055
 30
0.0
 10
14.26789008246528
 20
1.424357096354166
 30
0.0
 10
14.255615234375
 20
1.440985785590277
 30
0.0
 10
14.24907769097222
 20
1.462754991319444
 30
0.0
 10
14.248291015625
 20
1.489691840277777
 30
0.0
 10
14.248291015625
 20
1.489691840277777
 30
0.0
 10
14.31837293836805
 20
1.489691840277777
 30
0.0
 10
14.31837293836805
 20
1.489691840277777
 30
0.0
 10
14.32194010416666
 20
1.475436740451388
 30
0.0
 10
14.328369140625
 20
1.464938693576388
 30
0.0
 10
14.33767361111111
 20
1.458211263020833
 30
0.0
 10
14.34697808159722
 20
1.451470269097222
 30
0.0
 10
14.35777452256944
 20
1.44692654079861
 30
0.0
 10
14.37004937065972
 20
1.444552951388888
 30
0.0
 10
14.38232421875
 20
1.44216579861111
 30
0.0
 10
14.39529079861111
 20
1.441080729166666
 30
0.0
 10
14.40894911024305
 20
1.4412841796875
 30
0.0
 10
14.422607421875
 20
1.441474066840277
 30
0.0
 10
14.43538411458333
 20
1.441582573784722
 30
0.0
 10
14.44725206163194
 20
1.441582573784722
 30
0.0
 10
14.45756022135416
 20
1.441582573784722
 30
0.0
 10
14.46923828125
 20
1.441080729166666
 30
0.0
 10
14.4822998046875
 20
1.44009060329861
 30
0.0
 10
14.49537489149305
 20
1.439100477430555
 30
0.0
 10
14.50843641493055
 20
1.438910590277777
 30
0.0
 10
14.52149793836805
 20
1.439493815104166
 30
0.0
 10
14.53457302517361
 20
1.44009060329861
 30
0.0
 10
14.54673936631944
 20
1.441962348090277
 30
0.0
 10
14.55802408854166
 20
1.445136176215277
 30
0.0
 10
14.56932237413194
 20
1.448310004340277
 30
0.0
 10
14.57832845052083
 20
1.454047309027777
 30
0.0
 10
14.58505588107638
 20
1.462361653645833
 30
0.0
 10
14.58822970920139
 20
1.466322157118055
 30
0.0
 10
14.5906982421875
 20
1.470675998263888
 30
0.0
 10
14.59247504340277
 20
1.475436740451388
 30
0.0
 10
14.59426540798611
 20
1.480183919270833
 30
0.0
 10
14.59555392795139
 20
1.484931098090277
 30
0.0
 10
14.59634060329861
 20
1.489691840277777
 30
0.0
 10
14.59634060329861
 20
1.489691840277777
 30
0.0
 10
14.66701931423611
 20
1.489691840277777
 30
0.0
 10
14.66701931423611
 20
1.489691840277777
 30
0.0
 10
14.66583930121528
 20
1.469495985243055
 30
0.0
 10
14.661865234375
 20
1.4522705078125
 30
0.0
 10
14.65513780381944
 20
1.43801540798611
 30
0.0
  0
SPLINE
  5
11E
330
117
100
AcDbEntity
  8
0
 62
    18
420
        0
370
    35
100
AcDbSpline
210
0.0
220
0.0
230
1.0
 70
     9
 71
     3
 72
    65
 73
    61
 74
     0
 42
0.0000000001
 43
0.0000000001
 40
0.0
 40
0.0
 40
0.0
 40
0.0
 40
1.0
 40
1.0
 40
1.0
 40
2.0
 40
2.0
 40
2.0
 40
3.0
 40
3.0
 40
3.0
 40
4.0
 40
4.0
 40
4.0
 40
5.0
 40
5.0
 40
5.0
 40
6.0
 40
6.0
 40
6.0
 40
7.0
 40
7.0
 40
7.0
 40
8.0
 40
8.0
 40
8.0
 40
9.0
 40
9.0
 40
9.0
 40
10.0
 40
10.0
 40
10.0
 40
11.0
 40
11.0
 40
11.0
 40
12.0
 40
12.0
 40
12.0
 40
13.0
 40
13.0
 40
13.0
 40
14.0
 40
14.0
 40
14.0
 40
15.0
 40
15.0
 40
15.0
 40
16.0
 40
16.0
 40
16.0
 40
17.0
 40
17.0
 40
17.0
 40
18.0
 40
18.0
 40
18.0
 40
19.0
 40
19.0
 40
19.0
 40
20.0
 40
20.0
 40
20.0
 40
20.0
 10
14.52298990885416
 20
1.66015625
 30
0.0
 10
14.54774305555555
 20
1.65896267361111
 30
0.0
 10
14.57010904947916
 20
1.654513888888888
 30
0.0
 10
14.59010145399305
 20
1.646782769097222
 30
0.0
 10
14.610107421875
 20
1.63906521267361
 30
0.0
 10
14.62692599826389
 20
1.62698025173611
 30
0.0
 10
14.64058430989583
 20
1.610555013020833
 30
0.0
 10
14.65425618489583
 20
1.5941162109375
 30
0.0
 10
14.66324869791666
 20
1.570665147569444
 30
0.0
 10
14.66761610243055
 20
1.540174696180555
 30
0.0
 10
14.66761610243055
 20
1.540174696180555
 30
0.0
 10
14.59574381510416
 20
1.540174696180555
 30
0.0
 10
14.59574381510416
 20
1.540174696180555
 30
0.0
 10
14.59574381510416
 20
1.553629557291666
 30
0.0
 10
14.59010145399305
 20
1.563435872395833
 30
0.0
 10
14.57881673177083
 20
1.569580078125
 30
0.0
 10
14.56753200954861
 20
1.57571072048611
 30
0.0
 10
14.55417209201389
 20
1.579576280381944
 30
0.0
 10
14.53872341579861
 20
1.581163194444444
 30
0.0
 10
14.52328830295139
 20
1.582736545138888
 30
0.0
 10
14.50754123263888
 20
1.5831298828125
 30
0.0
 10
14.49150933159722
 20
1.582343207465277
 30
0.0
 10
14.47547743055555
 20
1.58154296875
 30
0.0
 10
14.46251085069444
 20
1.581163194444444
 30
0.0
 10
14.45260959201388
 20
1.581163194444444
 30
0.0
 10
14.44390190972222
 20
1.581163194444444
 30
0.0
 10
14.43370225694444
 20
1.581746419270833
 30
0.0
 10
14.42201063368055
 20
1.582939995659722
 30
0.0
 10
14.41034613715278
 20
1.584120008680555
 30
0.0
 10
14.3985595703125
 20
1.584811740451388
 30
0.0
 10
14.38667805989583
 20
1.585015190972222
 30
0.0
 10
14.37479654947916
 20
1.585218641493055
 30
0.0
 10
14.36381022135416
 20
1.584120008680555
 30
0.0
 10
14.35370551215277
 20
1.581746419270833
 30
0.0
 10
14.34361436631944
 20
1.57937282986111
 30
0.0
 10
14.33559841579861
 20
1.574625651041666
 30
0.0
 10
14.32965766059028
 20
1.567491319444444
 30
0.0
 10
14.32649739583333
 20
1.563530815972222
 30
0.0
 10
14.32401529947916
 20
1.559271918402777
 30
0.0
 10
14.32222493489583
 20
1.554728190104166
 30
0.0
 10
14.32044813368055
 20
1.5501708984375
 30
0.0
 10
14.3189697265625
 20
1.545518663194444
 30
0.0
 10
14.31777615017361
 20
1.540771484375
 30
0.0
 10
14.31777615017361
 20
1.540771484375
 30
0.0
 10
14.24709743923611
 20
1.540771484375
 30
0.0
 10
14.24709743923611
 20
1.540771484375
 30
0.0
 10
14.24789767795139
 20
1.5684814453125
 30
0.0
 10
14.25432671440972
 20
1.59035915798611
 30
0.0
 10
14.26639811197916
 20
1.606404622395833
 30
0.0
 10
14.27848307291666
 20
1.6224365234375
 30
0.0
 10
14.29393174913194
 20
1.634507921006944
 30
0.0
 10
14.31273057725694
 20
1.642632378472222
 30
0.0
 10
14.33154296875
 20
1.650743272569444
 30
0.0
 10
14.35262044270833
 20
1.655992296006944
 30
0.0
 10
14.37599012586805
 20
1.658365885416666
 30
0.0
 10
14.39934624565972
 20
1.660753038194444
 30
0.0
 10
14.42290581597222
 20
1.661933051215277
 30
0.0
 10
14.44666883680555
 20
1.661933051215277
 30
0.0
 10
14.47279188368055
 20
1.661933051215277
 30
0.0
 10
14.49825032552083
 20
1.661336263020833
 30
0.0
 10
14.52298990885416
 20
1.66015625
 30
0.0
  0
SPLINE
  5
11F
330
117
100
AcDbEntity
  8
0
 62
    18
420
        0
370
    35
100
AcDbSpline
210
0.0
220
0.0
230
1.0
 70
    11
 71
     3
 72
    41
 73
    37
 74
     0
 42
0.0000000001
 43
0.0000000001
 40
0.0
 40
0.0
 40
0.0
 40
0.0
 40
1.0
 40
1.0
 40
1.0
 40
2.0
 40
2.0
 40
2.0
 40
3.0
 40
3.0
 40
3.0
 40
4.0
 40
4.0
 40
4.0
 40
5.0
 40
5.0
 40
5.0
 40
6.0
 40
6.0
 40
6.0
 40
7.0
 40
7.0
 40
7.0
 40
8.0
 40
8.0
 40
8.0
 40
9.0
 40
9.0
 40
9.0
 40
10.0
 40
10.0
 40
10.0
 40
11.0
 40
11.0
 40
11.0
 40
12.0
 40
12.0
 40
12.0
 40
12.0
 10
14.36054144965277
 20
1.808634440104166
 30
0.0
 10
14.37281629774305
 20
1.805067274305555
 30
0.0
 10
14.38331434461805
 20
1.799519856770833
 30
0.0
 10
14.39202202690972
 20
1.792005750868055
 30
0.0
 10
14.40072970920138
 20
1.784478081597222
 30
0.0
 10
14.40825737847222
 20
1.774875217013888
 30
0.0
 10
14.41459147135416
 20
1.763197157118055
 30
0.0
 10
14.42092556423611
 20
1.751519097222222
 30
0.0
 10
14.42727322048611
 20
1.737752278645833
 30
0.0
 10
14.43359375
 20
1.721923828125
 30
0.0
 10
14.43359375
 20
1.721923828125
 30
0.0
 10
14.39973958333333
 20
1.721923828125
 30
0.0
 10
14.39973958333333
 20
1.721923828125
 30
0.0
 10
14.39973958333333
 20
1.721923828125
 30
0.0
 10
14.39914279513889
 20
1.721923828125
 30
0.0
 10
14.39914279513889
 20
1.721923828125
 30
0.0
 10
14.39400227864583
 20
1.7349853515625
 30
0.0
 10
14.38559299045139
 20
1.7464599609375
 30
0.0
 10
14.3739013671875
 20
1.756361219618055
 30
0.0
 10
14.36223687065972
 20
1.76626247829861
 30
0.0
 10
14.34906684027778
 20
1.771213107638888
 30
0.0
 10
14.33440483940972
 20
1.771213107638888
 30
0.0
 10
14.33440483940972
 20
1.771213107638888
 30
0.0
 10
14.33440483940972
 20
1.724894205729166
 30
0.0
 10
14.33440483940972
 20
1.724894205729166
 30
0.0
 10
14.33440483940972
 20
1.724894205729166
 30
0.0
 10
14.24532063802083
 20
1.724894205729166
 30
0.0
 10
14.24532063802083
 20
1.724894205729166
 30
0.0
 10
14.24532063802083
 20
1.724894205729166
 30
0.0
 10
14.24532063802083
 20
1.813978407118055
 30
0.0
 10
14.24532063802083
 20
1.813978407118055
 30
0.0
 10
14.24532063802083
 20
1.813978407118055
 30
0.0
 10
14.31480577256944
 20
1.813978407118055
 30
0.0
 10
14.31480577256944
 20
1.813978407118055
 30
0.0
 10
14.33302137586805
 20
1.813978407118055
 30
0.0
 10
14.3482666015625
 20
1.812201605902777
 30
0.0
 10
14.36054144965277
 20
1.808634440104166
 30
0.0
  0
SPLINE
  5
120
330
117
100
AcDbEntity
  8
0
 62
    18
420
        0
370
    35
100
AcDbSpline
210
0.0
220
0.0
230
1.0
 70
     9
 71
     3
 72
    41
 73
    37
 74
     0
 42
0.0000000001
 43
0.0000000001
 40
0.0
 40
0.0
 40
0.0
 40
0.0
 40
1.0
 40
1.0
 40
1.0
 40
2.0
 40
2.0
 40
2.0
 40
3.0
 40
3.0
 40
3.0
 40
4.0
 40
4.0
 40
4.0
 40
5.0
 40
5.0
 40
5.0
 40
6.0
 40
6.0
 40
6.0
 40
7.0
 40
7.0
 40
7.0
 40
8.0
 40
8.0
 40
8.0
 40
9.0
 40
9.0
 40
9.0
 40
10.0
 40
10.0
 40
10.0
 40
11.0
 40
11.0
 40
11.0
 40
12.0
 40
12.0
 40
12.0
 40
12.0
 10
14.34450954861111
 20
1.929212782118055
 30
0.0
 10
14.35915798611111
 20
1.926825629340277
 30
0.0
 10
14.37221950954861
 20
1.922376844618055
 30
0.0
 10
14.38370768229166
 20
1.915839301215277
 30
0.0
 10
14.39519585503472
 20
1.909315321180555
 30
0.0
 10
14.40498860677083
 20
1.899997287326388
 30
0.0
 10
14.41311306423611
 20
1.887925889756944
 30
0.0
 10
14.42122395833333
 20
1.875840928819444
 30
0.0
 10
14.42765299479166
 20
1.860310872395833
 30
0.0
 10
14.43241373697916
 20
1.84130859375
 30
0.0
 10
14.43241373697916
 20
1.84130859375
 30
0.0
 10
14.39973958333333
 20
1.84130859375
 30
0.0
 10
14.39973958333333
 20
1.84130859375
 30
0.0
 10
14.39973958333333
 20
1.84130859375
 30
0.0
 10
14.39973958333333
 20
1.841891818576388
 30
0.0
 10
14.39973958333333
 20
1.841891818576388
 30
0.0
 10
14.39341905381944
 20
1.854560004340277
 30
0.0
 10
14.38460286458333
 20
1.865546332465277
 30
0.0
 10
14.37331814236111
 20
1.874864366319444
 30
0.0
 10
14.36201985677083
 20
1.8841552734375
 30
0.0
 10
14.34886338975694
 20
1.888617621527777
 30
0.0
 10
14.33380805121528
 20
1.888224283854166
 30
0.0
 10
14.33380805121528
 20
1.888224283854166
 30
0.0
 10
14.33380805121528
 20
1.843085394965277
 30
0.0
 10
14.33380805121528
 20
1.843085394965277
 30
0.0
 10
14.33380805121528
 20
1.843085394965277
 30
0.0
 10
14.24472384982639
 20
1.843085394965277
 30
0.0
 10
14.24472384982639
 20
1.843085394965277
 30
0.0
 10
14.24472384982639
 20
1.843085394965277
 30
0.0
 10
14.24532063802083
 20
1.93276638454861
 30
0.0
 10
14.24532063802083
 20
1.93276638454861
 30
0.0
 10
14.24532063802083
 20
1.93276638454861
 30
0.0
 10
14.29520670572916
 20
1.93276638454861
 30
0.0
 10
14.29520670572916
 20
1.93276638454861
 30
0.0
 10
14.31342230902777
 20
1.93276638454861
 30
0.0
 10
14.32986111111111
 20
1.931586371527777
 30
0.0
 10
14.34450954861111
 20
1.929212782118055
 30
0.0
  0
SPLINE
  5
121
330
117
100
AcDbEntity
  8
0
 62
    18
420
        0
370
    35
100
AcDbSpline
210
0.0
220
0.0
230
1.0
 70
    11
 71
     3
 72
    17
 73
    13
 74
     0
 42
0.0000000001
 43
0.0000000001
 40
0.0
 40
0.0
 40
0.0
 40
0.0
 40
1.0
 40
1.0
 40
1.0
 40
2.0
 40
2.0
 40
2.0
 40
3.0
 40
3.0
 40
3.0
 40
4.0
 40
4.0
 40
4.0
 40
4.0
 10
15.37441677517361
 20
1.322496202256944
 30
0.0
 10
15.37441677517361
 20
1.322496202256944
 30
0.0
 10
14.95806206597222
 20
1.322496202256944
 30
0.0
 10
14.95806206597222
 20
1.322496202256944
 30
0.0
 10
14.95806206597222
 20
1.322496202256944
 30
0.0
 10
14.95806206597222
 20
1.415744357638888
 30
0.0
 10
14.95806206597222
 20
1.415744357638888
 30
0.0
 10
14.95806206597222
 20
1.415744357638888
 30
0.0
 10
15.37441677517361
 20
1.415744357638888
 30
0.0
 10
15.37441677517361
 20
1.415744357638888
 30
0.0
 10
15.37441677517361
 20
1.415744357638888
 30
0.0
 10
15.37441677517361
 20
1.322496202256944
 30
0.0
 10
15.37441677517361
 20
1.322496202256944
 30
0.0
  0
SPLINE
  5
122
330
117
100
AcDbEntity
  8
0
 62
    18
420
        0
370
    35
100
AcDbSpline
210
0.0
220
0.0
230
1.0
 70
     9
 71
     3
 72
   137
 73
   133
 74
     0
 42
0.0000000001
 43
0.0000000001
 40
0.0
 40
0.0
 40
0.0
 40
0.0
 40
1.0
 40
1.0
 40
1.0
 40
2.0
 40
2.0
 40
2.0
 40
3.0
 40
3.0
 40
3.0
 40
4.0
 40
4.0
 40
4.0
 40
5.0
 40
5.0
 40
5.0
 40
6.0
 40
6.0
 40
6.0
 40
7.0
 40
7.0
 40
7.0
 40
8.0
 40
8.0
 40
8.0
 40
9.0
 40
9.0
 40
9.0
 40
10.0
 40
10.0
 40
10.0
 40
11.0
 40
11.0
 40
11.0
 40
12.0
 40
12.0
 40
12.0
 40
13.0
 40
13.0
 40
13.0
 40
14.0
 40
14.0
 40
14.0
 40
15.0
 40
15.0
 40
15.0
 40
16.0
 40
16.0
 40
16.0
 40
17.0
 40
17.0
 40
17.0
 40
18.0
 40
18.0
 40
18.0
 40
19.0
 40
19.0
 40
19.0
 40
20.0
 40
20.0
 40
20.0
 40
21.0
 40
21.0
 40
21.0
 40
22.0
 40
22.0
 40
22.0
 40
23.0
 40
23.0
 40
23.0
 40
24.0
 40
24.0
 40
24.0
 40
25.0
 40
25.0
 40
25.0
 40
26.0
 40
26.0
 40
26.0
 40
27.0
 40
27.0
 40
27.0
 40
28.0
 40
28.0
 40
28.0
 40
29.0
 40
29.0
 40
29.0
 40
30.0
 40
30.0
 40
30.0
 40
31.0
 40
31.0
 40
31.0
 40
32.0
 40
32.0
 40
32.0
 40
33.0
 40
33.0
 40
33.0
 40
34.0
 40
34.0
 40
34.0
 40
35.0
 40
35.0
 40
35.0
 40
36.0
 40
36.0
 40
36.0
 40
37.0
 40
37.0
 40
37.0
 40
38.0
 40
38.0
 40
38.0
 40
39.0
 40
39.0
 40
39.0
 40
40.0
 40
40.0
 40
40.0
 40
41.0
 40
41.0
 40
41.0
 40
42.0
 40
42.0
 40
42.0
 40
43.0
 40
43.0
 40
43.0
 40
44.0
 40
44.0
 40
44.0
 40
44.0
 10
15.37441677517361
 20
1.570760091145833
 30
0.0
 10
15.36490885416666
 20
1.566012912326388
 30
0.0
 10
15.35521104600694
 20
1.561848958333333
 30
0.0
 10
15.34530978732639
 20
1.558295355902777
 30
0.0
 10
15.33542209201389
 20
1.554728190104166
 30
0.0
 10
15.32511393229166
 20
1.551947699652777
 30
0.0
 10
15.31442599826388
 20
1.549981011284722
 30
0.0
 10
15.30373806423611
 20
1.547987196180555
 30
0.0
 10
15.29325358072916
 20
1.5465087890625
 30
0.0
 10
15.28294542100694
 20
1.545518663194444
 30
0.0
 10
15.27265082465278
 20
1.544528537326388
 30
0.0
 10
15.26334635416666
 20
1.542453342013888
 30
0.0
 10
15.25503200954861
 20
1.539279513888888
 30
0.0
 10
15.24671766493055
 20
1.536105685763888
 30
0.0
 10
15.23969184027778
 20
1.530965169270833
 30
0.0
 10
15.23394097222222
 20
1.523844401041666
 30
0.0
 10
15.22821723090278
 20
1.516710069444444
 30
0.0
 10
15.22454155815972
 20
1.506212022569444
 30
0.0
 10
15.22295464409722
 20
1.492363823784722
 30
0.0
 10
15.22257486979166
 20
1.48720974392361
 30
0.0
 10
15.22216796875
 20
1.483642578125
 30
0.0
 10
15.22177463107639
 20
1.481675889756944
 30
0.0
 10
15.22138129340278
 20
1.479682074652777
 30
0.0
 10
15.22117784288194
 20
1.4779052734375
 30
0.0
 10
15.22117784288194
 20
1.476331922743055
 30
0.0
 10
15.22117784288194
 20
1.475138346354166
 30
0.0
 10
15.22117784288194
 20
1.473361545138888
 30
0.0
 10
15.22117784288194
 20
1.47097439236111
 30
0.0
 10
15.22117784288194
 20
1.468994140625
 30
0.0
 10
15.22117784288194
 20
1.465426974826388
 30
0.0
 10
15.22117784288194
 20
1.460286458333333
 30
0.0
 10
15.22117784288194
 20
1.460286458333333
 30
0.0
 10
15.14633517795139
 20
1.461480034722222
 30
0.0
 10
15.14633517795139
 20
1.461480034722222
 30
0.0
 10
15.14633517795139
 20
1.468207465277777
 30
0.0
 10
15.14644368489583
 20
1.474839952256944
 30
0.0
 10
15.14663357204861
 20
1.481377495659722
 30
0.0
 10
15.14683702256944
 20
1.487901475694444
 30
0.0
 10
15.14693196614583
 20
1.49453396267361
 30
0.0
 10
15.14693196614583
 20
1.501274956597222
 30
0.0
 10
15.14693196614583
 20
1.51235622829861
 30
0.0
 10
15.146240234375
 20
1.521552191840277
 30
0.0
 10
15.14485677083333
 20
1.528889973958333
 30
0.0
 10
15.14347330729166
 20
1.536214192708333
 30
0.0
 10
15.14059787326389
 20
1.542154947916666
 30
0.0
 10
15.13624403211805
 20
1.546712239583333
 30
0.0
 10
15.13189019097222
 20
1.551255967881944
 30
0.0
 10
15.12565104166666
 20
1.554429796006944
 30
0.0
 10
15.11752658420139
 20
1.556206597222222
 30
0.0
 10
15.10941569010416
 20
1.557996961805555
 30
0.0
 10
15.09842936197916
 20
1.558878580729166
 30
0.0
 10
15.08456759982639
 20
1.558878580729166
 30
0.0
 10
15.073486328125
 20
1.558878580729166
 30
0.0
 10
15.06467013888889
 20
1.557793511284722
 30
0.0
 10
15.05813259548611
 20
1.555623372395833
 30
0.0
 10
15.05160861545139
 20
1.553439670138888
 30
0.0
 10
15.0467529296875
 20
1.5501708984375
 30
0.0
 10
15.0435791015625
 20
1.545817057291666
 30
0.0
 10
15.04041883680555
 20
1.541449652777777
 30
0.0
 10
15.03834364149305
 20
1.536024305555555
 30
0.0
 10
15.037353515625
 20
1.529486762152777
 30
0.0
 10
15.03636338975694
 20
1.52294921875
 30
0.0
 10
15.03586154513889
 20
1.51553005642361
 30
0.0
 10
15.03586154513889
 20
1.507215711805555
 30
0.0
 10
15.03586154513889
 20
1.499688042534722
 30
0.0
 10
15.03606499565972
 20
1.492255316840277
 30
0.0
 10
15.03645833333333
 20
1.484931098090277
 30
0.0
 10
15.03685167100694
 20
1.477606879340277
 30
0.0
 10
15.03705512152778
 20
1.470391167534722
 30
0.0
 10
15.03705512152778
 20
1.4632568359375
 30
0.0
 10
15.03705512152778
 20
1.4632568359375
 30
0.0
 10
15.03705512152778
 20
1.460883246527777
 30
0.0
 10
15.03705512152778
 20
1.460883246527777
 30
0.0
 10
15.03705512152778
 20
1.460883246527777
 30
0.0
 10
14.95806206597222
 20
1.460883246527777
 30
0.0
 10
14.95806206597222
 20
1.460883246527777
 30
0.0
 10
14.95845540364583
 20
1.476331922743055
 30
0.0
 10
14.95856391059027
 20
1.491767035590277
 30
0.0
 10
14.95834689670139
 20
1.507215711805555
 30
0.0
 10
14.95815700954861
 20
1.522650824652777
 30
0.0
 10
14.95894368489583
 20
1.537299262152777
 30
0.0
 10
14.96073404947916
 20
1.551161024305555
 30
0.0
 10
14.96251085069444
 20
1.565022786458333
 30
0.0
 10
14.96548122829861
 20
1.578084309895833
 30
0.0
 10
14.96963161892361
 20
1.59035915798611
 30
0.0
 10
14.97379557291666
 20
1.602634006076388
 30
0.0
 10
14.98033311631944
 20
1.613132052951388
 30
0.0
 10
14.98924424913194
 20
1.621839735243055
 30
0.0
 10
14.99814181857639
 20
1.630547417534722
 30
0.0
 10
15.00972493489583
 20
1.63747829861111
 30
0.0
 10
15.02398003472222
 20
1.642632378472222
 30
0.0
 10
15.03823513454861
 20
1.647772894965277
 30
0.0
 10
15.05605740017361
 20
1.650349934895833
 30
0.0
 10
15.07744683159722
 20
1.650349934895833
 30
0.0
 10
15.08774142795139
 20
1.650349934895833
 30
0.0
 10
15.09852430555555
 20
1.648668077256944
 30
0.0
 10
15.10980902777778
 20
1.645304361979166
 30
0.0
 10
15.12109375
 20
1.641940646701388
 30
0.0
 10
15.13149685329861
 20
1.63699001736111
 30
0.0
 10
15.1409912109375
 20
1.630452473958333
 30
0.0
 10
15.15049913194444
 20
1.62392849392361
 30
0.0
 10
15.1583251953125
 20
1.616102430555555
 30
0.0
 10
15.16445583767361
 20
1.607001410590277
 30
0.0
 10
15.17060004340278
 20
1.597886827256944
 30
0.0
 10
15.17366536458333
 20
1.587592230902777
 30
0.0
 10
15.17366536458333
 20
1.576104058159722
 30
0.0
 10
15.17446560329861
 20
1.578084309895833
 30
0.0
 10
15.17525227864583
 20
1.580064561631944
 30
0.0
 10
15.17603895399305
 20
1.582044813368055
 30
0.0
 10
15.17683919270833
 20
1.584025065104166
 30
0.0
 10
15.17762586805555
 20
1.586005316840277
 30
0.0
 10
15.17841254340277
 20
1.587985568576388
 30
0.0
 10
15.18315972222222
 20
1.599473741319444
 30
0.0
 10
15.19049750434027
 20
1.608371310763888
 30
0.0
 10
15.20038519965277
 20
1.614718967013888
 30
0.0
 10
15.21028645833333
 20
1.621039496527777
 30
0.0
 10
15.22138129340278
 20
1.625895182291666
 30
0.0
 10
15.23365614149305
 20
1.6292724609375
 30
0.0
 10
15.24593098958333
 20
1.632622612847222
 30
0.0
 10
15.25839572482639
 20
1.635104709201388
 30
0.0
 10
15.27106391059027
 20
1.636691623263888
 30
0.0
 10
15.28374565972222
 20
1.638264973958333
 30
0.0
 10
15.29522026909722
 20
1.640055338541666
 30
0.0
 10
15.30551486545139
 20
1.642035590277777
 30
0.0
 10
15.31858995225694
 20
1.6444091796875
 30
0.0
 10
15.33056640625
 20
1.647881401909722
 30
0.0
 10
15.34145779079861
 20
1.652438693576388
 30
0.0
 10
15.35234917534722
 20
1.656982421875
 30
0.0
 10
15.36333550347222
 20
1.66262478298611
 30
0.0
 10
15.37441677517361
 20
1.669365776909722
 30
0.0
 10
15.37441677517361
 20
1.669365776909722
 30
0.0
 10
15.37441677517361
 20
1.570760091145833
 30
0.0
 10
15.37441677517361
 20
1.570760091145833
 30
0.0
  0
ENDBLK
  5
11A
330
117
100
AcDbEntity
  8
0
100
AcDbBlockEnd
  0
ENDSEC
  0
SECTION
  2
ENTITIES
  0
LINE
  5
78
330
70
100
AcDbEntity
  8
0
 62
    18
420
        0
370
    25
100
AcDbLine
 10
15.84299720981749
 20
0.6144497626726459
 30
0.0
 11
15.62149097915886
 21
0.6144497626726459
 31
0.0
  0
SPLINE
  5
79
330
70
100
AcDbEntity
  8
0
 62
    18
420
        0
370
    25
100
AcDbSpline
210
0.0
220
0.0
230
1.0
 70
     8
 71
     3
 72
    11
 73
     7
 74
     0
 42
0.0000000001
 43
0.0000000001
 40
0.0
 40
0.0
 40
0.0
 40
0.0
 40
1.0
 40
1.0
 40
1.0
 40
2.0
 40
2.0
 40
2.0
 40
2.0
 10
-1.311894851555254
 20
0.7144497626726559
 30
0.0
 10
-1.311894851555254
 20
0.7696782376557268
 30
0.0
 10
-1.356666376572181
 20
0.8144497626726408
 30
0.0
 10
-1.411894851555264
 20
0.8144497626726408
 30
0.0
 10
-1.467123326538335
 20
0.8144497626726408
 30
0.0
 10
-1.511894851555262
 20
0.7696782376557268
 30
0.0
 10
-1.511894851555262
 20
0.7144497626726559
 30
0.0
  0
LINE
  5
7A
330
70
100
AcDbEntity
  8
0
 62
    18
420
        0
370
    25
100
AcDbLine
 10
-1.511894851555262
 20
0.7144497626726559
 30
0.0
 11
-1.511894851555262
 21
0.634449762672653
 31
0.0
  0
LINE
  5
7B
330
70
100
AcDbEntity
  8
0
 62
    18
420
        0
370
    25
100
AcDbLine
 10
-1.311894851555267
 20
0.7144497626726559
 30
0.0
 11
-1.311894851555267
 21
0.634449762672653
 31
0.0
  0
SPLINE
  5
7C
330
70
100
AcDbEntity
  8
0
 62
    18
420
        0
370
    25
100
AcDbSpline
210
0.0
220
0.0
230
1.0
 70
     8
 71
     3
 72
     8
 73
     4
 74
     0
 42
0.0000000001
 43
0.0000000001
 40
0.0
 40
0.0
 40
0.0
 40
0.0
 40
1.0
 40
1.0
 40
1.0
 40
1.0
 10
-1.531894851555256
 20
0.6144497626726459
 30
0.0
 10
-1.520849156558647
 20
0.6144497626726459
 30
0.0
 10
-1.511894851555262
 20
0.6234040676760185
 30
0.0
 10
-1.511894851555262
 20
0.634449762672653
 30
0.0
  0
SPLINE
  5
7D
330
70
100
AcDbEntity
  8
0
 62
    18
420
        0
370
    25
100
AcDbSpline
210
0.0
220
0.0
230
1.0
 70
     8
 71
     3
 72
     8
 73
     4
 74
     0
 42
0.0000000001
 43
0.0000000001
 40
0.0
 40
0.0
 40
0.0
 40
0.0
 40
1.0
 40
1.0
 40
1.0
 40
1.0
 10
-1.311894851555267
 20
0.634449762672653
 30
0.0
 10
-1.311894851555267
 20
0.6234040676760185
 30
0.0
 10
-1.302940546551882
 20
0.6144497626726459
 30
0.0
 10
-1.29189485155526
 20
0.6144497626726459
 30
0.0
  0
LINE
  5
7E
330
70
100
AcDbEntity
  8
0
 62
    18
420
        0
370
    25
100
AcDbLine
 10
-1.531894851555256
 20
0.6144497626726459
 30
0.0
 11
-2.742997209817505
 21
0.6144497626726459
 31
0.0
  0
SPLINE
  5
7F
330
70
100
AcDbEntity
  8
0
 62
    18
420
        0
370
    25
100
AcDbSpline
210
0.0
220
0.0
230
1.0
 70
     8
 71
     3
 72
    11
 73
     7
 74
     0
 42
0.0000000001
 43
0.0000000001
 40
0.0
 40
0.0
 40
0.0
 40
0.0
 40
1.0
 40
1.0
 40
1.0
 40
2.0
 40
2.0
 40
2.0
 40
2.0
 10
0.0392862547494259
 20
0.7144497626726559
 30
0.0
 10
0.0392862547494259
 20
0.7696782376557268
 30
0.0
 10
-0.0054852702675008
 20
0.8144497626726408
 30
0.0
 10
-0.0607137452505716
 20
0.8144497626726408
 30
0.0
 10
-0.1159422202336549
 20
0.8144497626726408
 30
0.0
 10
-0.160713745250569
 20
0.7696782376557268
 30
0.0
 10
-0.160713745250569
 20
0.7144497626726559
 30
0.0
  0
LINE
  5
80
330
70
100
AcDbEntity
  8
0
 62
    18
420
        0
370
    25
100
AcDbLine
 10
-0.160713745250569
 20
0.7144497626726559
 30
0.0
 11
-0.1607137452505817
 21
0.634449762672653
 31
0.0
  0
LINE
  5
81
330
70
100
AcDbEntity
  8
0
 62
    18
420
        0
370
    25
100
AcDbLine
 10
0.0392862547494259
 20
0.7144497626726559
 30
0.0
 11
0.0392862547494259
 21
0.634449762672653
 31
0.0
  0
SPLINE
  5
82
330
70
100
AcDbEntity
  8
0
 62
    18
420
        0
370
    25
100
AcDbSpline
210
0.0
220
0.0
230
1.0
 70
     8
 71
     3
 72
     8
 73
     4
 74
     0
 42
0.0000000001
 43
0.0000000001
 40
0.0
 40
0.0
 40
0.0
 40
0.0
 40
1.0
 40
1.0
 40
1.0
 40
1.0
 10
-0.1807137452505761
 20
0.6144497626726459
 30
0.0
 10
-0.169668050253967
 20
0.6144497626726459
 30
0.0
 10
-0.1607137452505817
 20
0.6234040676760185
 30
0.0
 10
-0.1607137452505817
 20
0.634449762672653
 30
0.0
  0
SPLINE
  5
83
330
70
100
AcDbEntity
  8
0
 62
    18
420
        0
370
    25
100
AcDbSpline
210
0.0
220
0.0
230
1.0
 70
     8
 71
     3
 72
     8
 73
     4
 74
     0
 42
0.0000000001
 43
0.0000000001
 40
0.0
 40
0.0
 40
0.0
 40
0.0
 40
1.0
 40
1.0
 40
1.0
 40
1.0
 10
0.0392862547494259
 20
0.634449762672653
 30
0.0
 10
0.0392862547494259
 20
0.6234040676760185
 30
0.0
 10
0.0482405597528113
 20
0.6144497626726459
 30
0.0
 10
0.0592862547494204
 20
0.6144497626726459
 30
0.0
  0
SPLINE
  5
84
330
70
100
AcDbEntity
  8
0
 62
    18
420
        0
370
    25
100
AcDbSpline
210
0.0
220
0.0
230
1.0
 70
     8
 71
     3
 72
    11
 73
     7
 74
     0
 42
0.0000000001
 43
0.0000000001
 40
0.0
 40
0.0
 40
0.0
 40
0.0
 40
1.0
 40
1.0
 40
1.0
 40
2.0
 40
2.0
 40
2.0
 40
2.0
 10
1.31408940435574
 20
0.7144497626726559
 30
0.0
 10
1.31408940435574
 20
0.7696782376557268
 30
0.0
 10
1.269317879338814
 20
0.8144497626726408
 30
0.0
 10
1.214089404355743
 20
0.8144497626726408
 30
0.0
 10
1.158860929372659
 20
0.8144497626726408
 30
0.0
 10
1.114089404355745
 20
0.7696782376557268
 30
0.0
 10
1.114089404355745
 20
0.7144497626726559
 30
0.0
  0
LINE
  5
85
330
70
100
AcDbEntity
  8
0
 62
    18
420
        0
370
    25
100
AcDbLine
 10
1.114089404355745
 20
0.7144497626726559
 30
0.0
 11
1.114089404355733
 21
0.634449762672653
 31
0.0
  0
LINE
  5
86
330
70
100
AcDbEntity
  8
0
 62
    18
420
        0
370
    25
100
AcDbLine
 10
1.31408940435574
 20
0.7144497626726559
 30
0.0
 11
1.31408940435574
 21
0.634449762672653
 31
0.0
  0
SPLINE
  5
87
330
70
100
AcDbEntity
  8
0
 62
    18
420
        0
370
    25
100
AcDbSpline
210
0.0
220
0.0
230
1.0
 70
     8
 71
     3
 72
     8
 73
     4
 74
     0
 42
0.0000000001
 43
0.0000000001
 40
0.0
 40
0.0
 40
0.0
 40
0.0
 40
1.0
 40
1.0
 40
1.0
 40
1.0
 10
1.094089404355738
 20
0.6144497626726459
 30
0.0
 10
1.10513509935236
 20
0.6144497626726459
 30
0.0
 10
1.114089404355733
 20
0.6234040676760185
 30
0.0
 10
1.114089404355733
 20
0.634449762672653
 30
0.0
  0
SPLINE
  5
88
330
70
100
AcDbEntity
  8
0
 62
    18
420
        0
370
    25
100
AcDbSpline
210
0.0
220
0.0
230
1.0
 70
     8
 71
     3
 72
     8
 73
     4
 74
     0
 42
0.0000000001
 43
0.0000000001
 40
0.0
 40
0.0
 40
0.0
 40
0.0
 40
1.0
 40
1.0
 40
1.0
 40
1.0
 10
1.31408940435574
 20
0.634449762672653
 30
0.0
 10
1.31408940435574
 20
0.6234040676760185
 30
0.0
 10
1.323043709359126
 20
0.6144497626726459
 30
0.0
 10
1.334089404355735
 20
0.6144497626726459
 30
0.0
  0
SPLINE
  5
89
330
70
100
AcDbEntity
  8
0
 62
    18
420
        0
370
    25
100
AcDbSpline
210
0.0
220
0.0
230
1.0
 70
     8
 71
     3
 72
    11
 73
     7
 74
     0
 42
0.0000000001
 43
0.0000000001
 40
0.0
 40
0.0
 40
0.0
 40
0.0
 40
1.0
 40
1.0
 40
1.0
 40
2.0
 40
2.0
 40
2.0
 40
2.0
 10
2.51763271144235
 20
0.7144497626726559
 30
0.0
 10
2.51763271144235
 20
0.7696782376557268
 30
0.0
 10
2.472861186425436
 20
0.8144497626726408
 30
0.0
 10
2.417632711442352
 20
0.8144497626726408
 30
0.0
 10
2.362404236459269
 20
0.8144497626726408
 30
0.0
 10
2.317632711442355
 20
0.7696782376557268
 30
0.0
 10
2.317632711442355
 20
0.7144497626726559
 30
0.0
  0
LINE
  5
8A
330
70
100
AcDbEntity
  8
0
 62
    18
420
        0
370
    25
100
AcDbLine
 10
2.317632711442355
 20
0.7144497626726559
 30
0.0
 11
2.317632711442355
 21
0.634449762672653
 31
0.0
  0
LINE
  5
8B
330
70
100
AcDbEntity
  8
0
 62
    18
420
        0
370
    25
100
AcDbLine
 10
2.51763271144235
 20
0.7144497626726559
 30
0.0
 11
2.51763271144235
 21
0.634449762672653
 31
0.0
  0
SPLINE
  5
8C
330
70
100
AcDbEntity
  8
0
 62
    18
420
        0
370
    25
100
AcDbSpline
210
0.0
220
0.0
230
1.0
 70
     8
 71
     3
 72
     8
 73
     4
 74
     0
 42
0.0000000001
 43
0.0000000001
 40
0.0
 40
0.0
 40
0.0
 40
0.0
 40
1.0
 40
1.0
 40
1.0
 40
1.0
 10
2.297632711442348
 20
0.6144497626726459
 30
0.0
 10
2.30867840643897
 20
0.6144497626726459
 30
0.0
 10
2.317632711442355
 20
0.6234040676760185
 30
0.0
 10
2.317632711442355
 20
0.634449762672653
 30
0.0
  0
SPLINE
  5
8D
330
70
100
AcDbEntity
  8
0
 62
    18
420
        0
370
    25
100
AcDbSpline
210
0.0
220
0.0
230
1.0
 70
     8
 71
     3
 72
     8
 73
     4
 74
     0
 42
0.0000000001
 43
0.0000000001
 40
0.0
 40
0.0
 40
0.0
 40
0.0
 40
1.0
 40
1.0
 40
1.0
 40
1.0
 10
2.51763271144235
 20
0.634449762672653
 30
0.0
 10
2.51763271144235
 20
0.6234040676760185
 30
0.0
 10
2.526587016445735
 20
0.6144497626726459
 30
0.0
 10
2.537632711442357
 20
0.6144497626726459
 30
0.0
  0
SPLINE
  5
8E
330
70
100
AcDbEntity
  8
0
 62
    18
420
        0
370
    25
100
AcDbSpline
210
0.0
220
0.0
230
1.0
 70
     8
 71
     3
 72
    11
 73
     7
 74
     0
 42
0.0000000001
 43
0.0000000001
 40
0.0
 40
0.0
 40
0.0
 40
0.0
 40
1.0
 40
1.0
 40
1.0
 40
2.0
 40
2.0
 40
2.0
 40
2.0
 10
3.653459483095894
 20
0.7144497626726559
 30
0.0
 10
3.653459483095894
 20
0.7696782376557268
 30
0.0
 10
3.60868795807898
 20
0.8144497626726408
 30
0.0
 10
3.553459483095896
 20
0.8144497626726408
 30
0.0
 10
3.498231008112813
 20
0.8144497626726408
 30
0.0
 10
3.453459483095899
 20
0.7696782376557268
 30
0.0
 10
3.453459483095899
 20
0.7144497626726559
 30
0.0
  0
LINE
  5
8F
330
70
100
AcDbEntity
  8
0
 62
    18
420
        0
370
    25
100
AcDbLine
 10
3.453459483095899
 20
0.7144497626726559
 30
0.0
 11
3.453459483095899
 21
0.634449762672653
 31
0.0
  0
LINE
  5
90
330
70
100
AcDbEntity
  8
0
 62
    18
420
        0
370
    25
100
AcDbLine
 10
3.653459483095894
 20
0.7144497626726559
 30
0.0
 11
3.653459483095894
 21
0.634449762672653
 31
0.0
  0
SPLINE
  5
91
330
70
100
AcDbEntity
  8
0
 62
    18
420
        0
370
    25
100
AcDbSpline
210
0.0
220
0.0
230
1.0
 70
     8
 71
     3
 72
     8
 73
     4
 74
     0
 42
0.0000000001
 43
0.0000000001
 40
0.0
 40
0.0
 40
0.0
 40
0.0
 40
1.0
 40
1.0
 40
1.0
 40
1.0
 10
3.433459483095892
 20
0.6144497626726459
 30
0.0
 10
3.444505178092513
 20
0.6144497626726459
 30
0.0
 10
3.453459483095899
 20
0.6234040676760185
 30
0.0
 10
3.453459483095899
 20
0.634449762672653
 30
0.0
  0
SPLINE
  5
92
330
70
100
AcDbEntity
  8
0
 62
    18
420
        0
370
    25
100
AcDbSpline
210
0.0
220
0.0
230
1.0
 70
     8
 71
     3
 72
     8
 73
     4
 74
     0
 42
0.0000000001
 43
0.0000000001
 40
0.0
 40
0.0
 40
0.0
 40
0.0
 40
1.0
 40
1.0
 40
1.0
 40
1.0
 10
3.653459483095894
 20
0.634449762672653
 30
0.0
 10
3.653459483095894
 20
0.6234040676760185
 30
0.0
 10
3.662413788099279
 20
0.6144497626726459
 30
0.0
 10
3.673459483095901
 20
0.6144497626726459
 30
0.0
  0
SPLINE
  5
93
330
70
100
AcDbEntity
  8
0
 62
    18
420
        0
370
    25
100
AcDbSpline
210
0.0
220
0.0
230
1.0
 70
     8
 71
     3
 72
    11
 73
     7
 74
     0
 42
0.0000000001
 43
0.0000000001
 40
0.0
 40
0.0
 40
0.0
 40
0.0
 40
1.0
 40
1.0
 40
1.0
 40
2.0
 40
2.0
 40
2.0
 40
2.0
 10
4.725900427977787
 20
0.7144497626726559
 30
0.0
 10
4.725900427977787
 20
0.7696782376557268
 30
0.0
 10
4.68112890296086
 20
0.8144497626726408
 30
0.0
 10
4.62590042797779
 20
0.8144497626726408
 30
0.0
 10
4.570671952994707
 20
0.8144497626726408
 30
0.0
 10
4.525900427977792
 20
0.7696782376557268
 30
0.0
 10
4.525900427977792
 20
0.7144497626726559
 30
0.0
  0
LINE
  5
94
330
70
100
AcDbEntity
  8
0
 62
    18
420
        0
370
    25
100
AcDbLine
 10
4.52590042797778
 20
0.7144497626726559
 30
0.0
 11
4.52590042797778
 21
0.634449762672653
 31
0.0
  0
LINE
  5
95
330
70
100
AcDbEntity
  8
0
 62
    18
420
        0
370
    25
100
AcDbLine
 10
4.725900427977787
 20
0.7144497626726559
 30
0.0
 11
4.725900427977787
 21
0.634449762672653
 31
0.0
  0
SPLINE
  5
96
330
70
100
AcDbEntity
  8
0
 62
    18
420
        0
370
    25
100
AcDbSpline
210
0.0
220
0.0
230
1.0
 70
     8
 71
     3
 72
     8
 73
     4
 74
     0
 42
0.0000000001
 43
0.0000000001
 40
0.0
 40
0.0
 40
0.0
 40
0.0
 40
1.0
 40
1.0
 40
1.0
 40
1.0
 10
4.505900427977786
 20
0.6144497626726459
 30
0.0
 10
4.516946122974395
 20
0.6144497626726459
 30
0.0
 10
4.52590042797778
 20
0.6234040676760185
 30
0.0
 10
4.52590042797778
 20
0.634449762672653
 30
0.0
  0
SPLINE
  5
97
330
70
100
AcDbEntity
  8
0
 62
    18
420
        0
370
    25
100
AcDbSpline
210
0.0
220
0.0
230
1.0
 70
     8
 71
     3
 72
     8
 73
     4
 74
     0
 42
0.0000000001
 43
0.0000000001
 40
0.0
 40
0.0
 40
0.0
 40
0.0
 40
1.0
 40
1.0
 40
1.0
 40
1.0
 10
4.725900427977787
 20
0.634449762672653
 30
0.0
 10
4.725900427977787
 20
0.6234040676760185
 30
0.0
 10
4.734854732981172
 20
0.6144497626726459
 30
0.0
 10
4.745900427977781
 20
0.6144497626726459
 30
0.0
  0
SPLINE
  5
98
330
70
100
AcDbEntity
  8
0
 62
    18
420
        0
370
    25
100
AcDbSpline
210
0.0
220
0.0
230
1.0
 70
     8
 71
     3
 72
    11
 73
     7
 74
     0
 42
0.0000000001
 43
0.0000000001
 40
0.0
 40
0.0
 40
0.0
 40
0.0
 40
1.0
 40
1.0
 40
1.0
 40
2.0
 40
2.0
 40
2.0
 40
2.0
 10
5.737711451599794
 20
0.7144497626726559
 30
0.0
 10
5.737711451599794
 20
0.7696782376557268
 30
0.0
 10
5.692939926582867
 20
0.8144497626726408
 30
0.0
 10
5.637711451599797
 20
0.8144497626726408
 30
0.0
 10
5.582482976616713
 20
0.8144497626726408
 30
0.0
 10
5.537711451599786
 20
0.7696782376557268
 30
0.0
 10
5.537711451599786
 20
0.7144497626726559
 30
0.0
  0
LINE
  5
99
330
70
100
AcDbEntity
  8
0
 62
    18
420
        0
370
    25
100
AcDbLine
 10
5.537711451599786
 20
0.7144497626726559
 30
0.0
 11
5.537711451599786
 21
0.634449762672653
 31
0.0
  0
LINE
  5
9A
330
70
100
AcDbEntity
  8
0
 62
    18
420
        0
370
    25
100
AcDbLine
 10
5.737711451599794
 20
0.7144497626726559
 30
0.0
 11
5.737711451599794
 21
0.634449762672653
 31
0.0
  0
SPLINE
  5
9B
330
70
100
AcDbEntity
  8
0
 62
    18
420
        0
370
    25
100
AcDbSpline
210
0.0
220
0.0
230
1.0
 70
     8
 71
     3
 72
     8
 73
     4
 74
     0
 42
0.0000000001
 43
0.0000000001
 40
0.0
 40
0.0
 40
0.0
 40
0.0
 40
1.0
 40
1.0
 40
1.0
 40
1.0
 10
5.517711451599792
 20
0.6144497626726459
 30
0.0
 10
5.528757146596413
 20
0.6144497626726459
 30
0.0
 10
5.537711451599786
 20
0.6234040676760185
 30
0.0
 10
5.537711451599786
 20
0.634449762672653
 30
0.0
  0
SPLINE
  5
9C
330
70
100
AcDbEntity
  8
0
 62
    18
420
        0
370
    25
100
AcDbSpline
210
0.0
220
0.0
230
1.0
 70
     8
 71
     3
 72
     8
 73
     4
 74
     0
 42
0.0000000001
 43
0.0000000001
 40
0.0
 40
0.0
 40
0.0
 40
0.0
 40
1.0
 40
1.0
 40
1.0
 40
1.0
 10
5.737711451599794
 20
0.634449762672653
 30
0.0
 10
5.737711451599794
 20
0.6234040676760185
 30
0.0
 10
5.746665756603179
 20
0.6144497626726459
 30
0.0
 10
5.757711451599789
 20
0.6144497626726459
 30
0.0
  0
SPLINE
  5
9D
330
70
100
AcDbEntity
  8
0
 62
    18
420
        0
370
    25
100
AcDbSpline
210
0.0
220
0.0
230
1.0
 70
     8
 71
     3
 72
    11
 73
     7
 74
     0
 42
0.0000000001
 43
0.0000000001
 40
0.0
 40
0.0
 40
0.0
 40
0.0
 40
1.0
 40
1.0
 40
1.0
 40
2.0
 40
2.0
 40
2.0
 40
2.0
 10
6.693223262623455
 20
0.7144497626726559
 30
0.0
 10
6.693223262623455
 20
0.7696782376557268
 30
0.0
 10
6.648451737606541
 20
0.8144497626726408
 30
0.0
 10
6.593223262623445
 20
0.8144497626726408
 30
0.0
 10
6.537994787640374
 20
0.8144497626726408
 30
0.0
 10
6.493223262623447
 20
0.7696782376557268
 30
0.0
 10
6.493223262623447
 20
0.7144497626726559
 30
0.0
  0
LINE
  5
9E
330
70
100
AcDbEntity
  8
0
 62
    18
420
        0
370
    25
100
AcDbLine
 10
6.493223262623447
 20
0.7144497626726559
 30
0.0
 11
6.493223262623447
 21
0.634449762672653
 31
0.0
  0
LINE
  5
9F
330
70
100
AcDbEntity
  8
0
 62
    18
420
        0
370
    25
100
AcDbLine
 10
6.693223262623455
 20
0.7144497626726559
 30
0.0
 11
6.693223262623455
 21
0.634449762672653
 31
0.0
  0
SPLINE
  5
A0
330
70
100
AcDbEntity
  8
0
 62
    18
420
        0
370
    25
100
AcDbSpline
210
0.0
220
0.0
230
1.0
 70
     8
 71
     3
 72
     8
 73
     4
 74
     0
 42
0.0000000001
 43
0.0000000001
 40
0.0
 40
0.0
 40
0.0
 40
0.0
 40
1.0
 40
1.0
 40
1.0
 40
1.0
 10
6.473223262623453
 20
0.6144497626726459
 30
0.0
 10
6.484268957620062
 20
0.6144497626726459
 30
0.0
 10
6.493223262623447
 20
0.6234040676760185
 30
0.0
 10
6.493223262623447
 20
0.634449762672653
 30
0.0
  0
SPLINE
  5
A1
330
70
100
AcDbEntity
  8
0
 62
    18
420
        0
370
    25
100
AcDbSpline
210
0.0
220
0.0
230
1.0
 70
     8
 71
     3
 72
     8
 73
     4
 74
     0
 42
0.0000000001
 43
0.0000000001
 40
0.0
 40
0.0
 40
0.0
 40
0.0
 40
1.0
 40
1.0
 40
1.0
 40
1.0
 10
6.693223262623455
 20
0.634449762672653
 30
0.0
 10
6.693223262623455
 20
0.6234040676760185
 30
0.0
 10
6.702177567626828
 20
0.6144497626726459
 30
0.0
 10
6.713223262623462
 20
0.6144497626726459
 30
0.0
  0
SPLINE
  5
A2
330
70
100
AcDbEntity
  8
0
 62
    18
420
        0
370
    25
100
AcDbSpline
210
0.0
220
0.0
230
1.0
 70
     8
 71
     3
 72
    11
 73
     7
 74
     0
 42
0.0000000001
 43
0.0000000001
 40
0.0
 40
0.0
 40
0.0
 40
0.0
 40
1.0
 40
1.0
 40
1.0
 40
2.0
 40
2.0
 40
2.0
 40
2.0
 10
7.594798065773071
 20
0.7144497626726559
 30
0.0
 10
7.594798065773071
 20
0.7696782376557268
 30
0.0
 10
7.550026540756132
 20
0.8144497626726408
 30
0.0
 10
7.494798065773061
 20
0.8144497626726408
 30
0.0
 10
7.43956959078999
 20
0.8144497626726408
 30
0.0
 10
7.394798065773051
 20
0.7696782376557268
 30
0.0
 10
7.394798065773051
 20
0.7144497626726559
 30
0.0
  0
LINE
  5
A3
330
70
100
AcDbEntity
  8
0
 62
    18
420
        0
370
    25
100
AcDbLine
 10
7.394798065773051
 20
0.7144497626726559
 30
0.0
 11
7.394798065773051
 21
0.634449762672653
 31
0.0
  0
LINE
  5
A4
330
70
100
AcDbEntity
  8
0
 62
    18
420
        0
370
    25
100
AcDbLine
 10
7.594798065773071
 20
0.7144497626726559
 30
0.0
 11
7.594798065773071
 21
0.634449762672653
 31
0.0
  0
SPLINE
  5
A5
330
70
100
AcDbEntity
  8
0
 62
    18
420
        0
370
    25
100
AcDbSpline
210
0.0
220
0.0
230
1.0
 70
     8
 71
     3
 72
     8
 73
     4
 74
     0
 42
0.0000000001
 43
0.0000000001
 40
0.0
 40
0.0
 40
0.0
 40
0.0
 40
1.0
 40
1.0
 40
1.0
 40
1.0
 10
7.374798065773044
 20
0.6144497626726459
 30
0.0
 10
7.385843760769652
 20
0.6144497626726459
 30
0.0
 10
7.394798065773051
 20
0.6234040676760185
 30
0.0
 10
7.394798065773051
 20
0.634449762672653
 30
0.0
  0
SPLINE
  5
A6
330
70
100
AcDbEntity
  8
0
 62
    18
420
        0
370
    25
100
AcDbSpline
210
0.0
220
0.0
230
1.0
 70
     8
 71
     3
 72
     8
 73
     4
 74
     0
 42
0.0000000001
 43
0.0000000001
 40
0.0
 40
0.0
 40
0.0
 40
0.0
 40
1.0
 40
1.0
 40
1.0
 40
1.0
 10
7.594798065773071
 20
0.634449762672653
 30
0.0
 10
7.594798065773071
 20
0.6234040676760185
 30
0.0
 10
7.603752370776444
 20
0.6144497626726459
 30
0.0
 10
7.614798065773053
 20
0.6144497626726459
 30
0.0
  0
SPLINE
  5
A7
330
70
100
AcDbEntity
  8
0
 62
    18
420
        0
370
    25
100
AcDbSpline
210
0.0
220
0.0
230
1.0
 70
     8
 71
     3
 72
    11
 73
     7
 74
     0
 42
0.0000000001
 43
0.0000000001
 40
0.0
 40
0.0
 40
0.0
 40
0.0
 40
1.0
 40
1.0
 40
1.0
 40
2.0
 40
2.0
 40
2.0
 40
2.0
 10
8.445585467347857
 20
0.7144497626726559
 30
0.0
 10
8.445585467347857
 20
0.7696782376557268
 30
0.0
 10
8.400813942330943
 20
0.8144497626726408
 30
0.0
 10
8.345585467347872
 20
0.8144497626726408
 30
0.0
 10
8.290356992364776
 20
0.8144497626726408
 30
0.0
 10
8.245585467347861
 20
0.7696782376557268
 30
0.0
 10
8.245585467347861
 20
0.7144497626726559
 30
0.0
  0
LINE
  5
A8
330
70
100
AcDbEntity
  8
0
 62
    18
420
        0
370
    25
100
AcDbLine
 10
8.245585467347861
 20
0.7144497626726559
 30
0.0
 11
8.245585467347861
 21
0.634449762672653
 31
0.0
  0
LINE
  5
A9
330
70
100
AcDbEntity
  8
0
 62
    18
420
        0
370
    25
100
AcDbLine
 10
8.445585467347857
 20
0.7144497626726559
 30
0.0
 11
8.445585467347857
 21
0.634449762672653
 31
0.0
  0
SPLINE
  5
AA
330
70
100
AcDbEntity
  8
0
 62
    18
420
        0
370
    25
100
AcDbSpline
210
0.0
220
0.0
230
1.0
 70
     8
 71
     3
 72
     8
 73
     4
 74
     0
 42
0.0000000001
 43
0.0000000001
 40
0.0
 40
0.0
 40
0.0
 40
0.0
 40
1.0
 40
1.0
 40
1.0
 40
1.0
 10
8.225585467347855
 20
0.6144497626726459
 30
0.0
 10
8.236631162344488
 20
0.6144497626726459
 30
0.0
 10
8.245585467347861
 20
0.6234040676760185
 30
0.0
 10
8.245585467347861
 20
0.634449762672653
 30
0.0
  0
SPLINE
  5
AB
330
70
100
AcDbEntity
  8
0
 62
    18
420
        0
370
    25
100
AcDbSpline
210
0.0
220
0.0
230
1.0
 70
     8
 71
     3
 72
     8
 73
     4
 74
     0
 42
0.0000000001
 43
0.0000000001
 40
0.0
 40
0.0
 40
0.0
 40
0.0
 40
1.0
 40
1.0
 40
1.0
 40
1.0
 10
8.445585467347857
 20
0.634449762672653
 30
0.0
 10
8.445585467347857
 20
0.6234040676760185
 30
0.0
 10
8.454539772351255
 20
0.6144497626726459
 30
0.0
 10
8.465585467347864
 20
0.6144497626726459
 30
0.0
  0
SPLINE
  5
AC
330
70
100
AcDbEntity
  8
0
 62
    18
420
        0
370
    25
100
AcDbSpline
210
0.0
220
0.0
230
1.0
 70
     8
 71
     3
 72
    11
 73
     7
 74
     0
 42
0.0000000001
 43
0.0000000001
 40
0.0
 40
0.0
 40
0.0
 40
0.0
 40
1.0
 40
1.0
 40
1.0
 40
2.0
 40
2.0
 40
2.0
 40
2.0
 10
9.248735073647063
 20
0.7144497626726559
 30
0.0
 10
9.248735073647063
 20
0.7696782376557268
 30
0.0
 10
9.203963548630149
 20
0.8144497626726408
 30
0.0
 10
9.148735073647078
 20
0.8144497626726408
 30
0.0
 10
9.093506598663982
 20
0.8144497626726408
 30
0.0
 10
9.048735073647067
 20
0.7696782376557268
 30
0.0
 10
9.048735073647067
 20
0.7144497626726559
 30
0.0
  0
LINE
  5
AD
330
70
100
AcDbEntity
  8
0
 62
    18
420
        0
370
    25
100
AcDbLine
 10
9.048735073647067
 20
0.7144497626726559
 30
0.0
 11
9.048735073647067
 21
0.634449762672653
 31
0.0
  0
LINE
  5
AE
330
70
100
AcDbEntity
  8
0
 62
    18
420
        0
370
    25
100
AcDbLine
 10
9.248735073647063
 20
0.7144497626726559
 30
0.0
 11
9.248735073647063
 21
0.634449762672653
 31
0.0
  0
SPLINE
  5
AF
330
70
100
AcDbEntity
  8
0
 62
    18
420
        0
370
    25
100
AcDbSpline
210
0.0
220
0.0
230
1.0
 70
     8
 71
     3
 72
     8
 73
     4
 74
     0
 42
0.0000000001
 43
0.0000000001
 40
0.0
 40
0.0
 40
0.0
 40
0.0
 40
1.0
 40
1.0
 40
1.0
 40
1.0
 10
9.028735073647061
 20
0.6144497626726459
 30
0.0
 10
9.039780768643696
 20
0.6144497626726459
 30
0.0
 10
9.048735073647067
 20
0.6234040676760185
 30
0.0
 10
9.048735073647067
 20
0.634449762672653
 30
0.0
  0
SPLINE
  5
B0
330
70
100
AcDbEntity
  8
0
 62
    18
420
        0
370
    25
100
AcDbSpline
210
0.0
220
0.0
230
1.0
 70
     8
 71
     3
 72
     8
 73
     4
 74
     0
 42
0.0000000001
 43
0.0000000001
 40
0.0
 40
0.0
 40
0.0
 40
0.0
 40
1.0
 40
1.0
 40
1.0
 40
1.0
 10
9.248735073647063
 20
0.634449762672653
 30
0.0
 10
9.248735073647063
 20
0.6234040676760185
 30
0.0
 10
9.257689378650461
 20
0.6144497626726459
 30
0.0
 10
9.26873507364707
 20
0.6144497626726459
 30
0.0
  0
SPLINE
  5
B1
330
70
100
AcDbEntity
  8
0
 62
    18
420
        0
370
    25
100
AcDbSpline
210
0.0
220
0.0
230
1.0
 70
     8
 71
     3
 72
    11
 73
     7
 74
     0
 42
0.0000000001
 43
0.0000000001
 40
0.0
 40
0.0
 40
0.0
 40
0.0
 40
1.0
 40
1.0
 40
1.0
 40
2.0
 40
2.0
 40
2.0
 40
2.0
 10
10.00700279018249
 20
0.7144497626726559
 30
0.0
 10
10.00700279018249
 20
0.7696782376557268
 30
0.0
 10
9.962231265165579
 20
0.8144497626726408
 30
0.0
 10
9.907002790182508
 20
0.8144497626726408
 30
0.0
 10
9.851774315199412
 20
0.8144497626726408
 30
0.0
 10
9.807002790182497
 20
0.7696782376557268
 30
0.0
 10
9.807002790182497
 20
0.7144497626726559
 30
0.0
  0
LINE
  5
B2
330
70
100
AcDbEntity
  8
0
 62
    18
420
        0
370
    25
100
AcDbLine
 10
9.807002790182497
 20
0.7144497626726559
 30
0.0
 11
9.807002790182497
 21
0.634449762672653
 31
0.0
  0
LINE
  5
B3
330
70
100
AcDbEntity
  8
0
 62
    18
420
        0
370
    25
100
AcDbLine
 10
10.00700279018252
 20
0.7144497626726559
 30
0.0
 11
10.00700279018252
 21
0.634449762672653
 31
0.0
  0
SPLINE
  5
B4
330
70
100
AcDbEntity
  8
0
 62
    18
420
        0
370
    25
100
AcDbSpline
210
0.0
220
0.0
230
1.0
 70
     8
 71
     3
 72
     8
 73
     4
 74
     0
 42
0.0000000001
 43
0.0000000001
 40
0.0
 40
0.0
 40
0.0
 40
0.0
 40
1.0
 40
1.0
 40
1.0
 40
1.0
 10
9.787002790182491
 20
0.6144497626726459
 30
0.0
 10
9.798048485179124
 20
0.6144497626726459
 30
0.0
 10
9.807002790182497
 20
0.6234040676760185
 30
0.0
 10
9.807002790182497
 20
0.634449762672653
 30
0.0
  0
SPLINE
  5
B5
330
70
100
AcDbEntity
  8
0
 62
    18
420
        0
370
    25
100
AcDbSpline
210
0.0
220
0.0
230
1.0
 70
     8
 71
     3
 72
     8
 73
     4
 74
     0
 42
0.0000000001
 43
0.0000000001
 40
0.0
 40
0.0
 40
0.0
 40
0.0
 40
1.0
 40
1.0
 40
1.0
 40
1.0
 10
10.00700279018252
 20
0.634449762672653
 30
0.0
 10
10.00700279018252
 20
0.6234040676760185
 30
0.0
 10
10.01595709518589
 20
0.6144497626726459
 30
0.0
 10
10.0270027901825
 20
0.6144497626726459
 30
0.0
  0
SPLINE
  5
B6
330
70
100
AcDbEntity
  8
0
 62
    18
420
        0
370
    25
100
AcDbSpline
210
0.0
220
0.0
230
1.0
 70
     8
 71
     3
 72
    11
 73
     7
 74
     0
 42
0.0000000001
 43
0.0000000001
 40
0.0
 40
0.0
 40
0.0
 40
0.0
 40
1.0
 40
1.0
 40
1.0
 40
2.0
 40
2.0
 40
2.0
 40
2.0
 10
10.72275082167852
 20
0.7144497626726559
 30
0.0
 10
10.72275082167852
 20
0.7696782376557268
 30
0.0
 10
10.67797929666161
 20
0.8144497626726408
 30
0.0
 10
10.62275082167854
 20
0.8144497626726408
 30
0.0
 10
10.56752234669544
 20
0.8144497626726408
 30
0.0
 10
10.52275082167853
 20
0.7696782376557268
 30
0.0
 10
10.52275082167853
 20
0.7144497626726559
 30
0.0
  0
LINE
  5
B7
330
70
100
AcDbEntity
  8
0
 62
    18
420
        0
370
    25
100
AcDbLine
 10
10.52275082167853
 20
0.7144497626726559
 30
0.0
 11
10.52275082167853
 21
0.634449762672653
 31
0.0
  0
LINE
  5
B8
330
70
100
AcDbEntity
  8
0
 62
    18
420
        0
370
    25
100
AcDbLine
 10
10.72275082167852
 20
0.7144497626726559
 30
0.0
 11
10.72275082167852
 21
0.634449762672653
 31
0.0
  0
SPLINE
  5
B9
330
70
100
AcDbEntity
  8
0
 62
    18
420
        0
370
    25
100
AcDbSpline
210
0.0
220
0.0
230
1.0
 70
     8
 71
     3
 72
     8
 73
     4
 74
     0
 42
0.0000000001
 43
0.0000000001
 40
0.0
 40
0.0
 40
0.0
 40
0.0
 40
1.0
 40
1.0
 40
1.0
 40
1.0
 10
10.50275082167852
 20
0.6144497626726459
 30
0.0
 10
10.51379651667515
 20
0.6144497626726459
 30
0.0
 10
10.52275082167853
 20
0.6234040676760185
 30
0.0
 10
10.52275082167853
 20
0.634449762672653
 30
0.0
  0
SPLINE
  5
BA
330
70
100
AcDbEntity
  8
0
 62
    18
420
        0
370
    25
100
AcDbSpline
210
0.0
220
0.0
230
1.0
 70
     8
 71
     3
 72
     8
 73
     4
 74
     0
 42
0.0000000001
 43
0.0000000001
 40
0.0
 40
0.0
 40
0.0
 40
0.0
 40
1.0
 40
1.0
 40
1.0
 40
1.0
 10
10.72275082167852
 20
0.634449762672653
 30
0.0
 10
10.72275082167852
 20
0.6234040676760185
 30
0.0
 10
10.73170512668192
 20
0.6144497626726459
 30
0.0
 10
10.74275082167853
 20
0.6144497626726459
 30
0.0
  0
SPLINE
  5
BB
330
70
100
AcDbEntity
  8
0
 62
    18
420
        0
370
    25
100
AcDbSpline
210
0.0
220
0.0
230
1.0
 70
     8
 71
     3
 72
    11
 73
     7
 74
     0
 42
0.0000000001
 43
0.0000000001
 40
0.0
 40
0.0
 40
0.0
 40
0.0
 40
1.0
 40
1.0
 40
1.0
 40
2.0
 40
2.0
 40
2.0
 40
2.0
 10
11.39794767207228
 20
0.7144497626726559
 30
0.0
 10
11.39794767207228
 20
0.7696782376557268
 30
0.0
 10
11.35317614705534
 20
0.8144497626726408
 30
0.0
 10
11.29794767207227
 20
0.8144497626726408
 30
0.0
 10
11.24271919708919
 20
0.8144497626726408
 30
0.0
 10
11.19794767207228
 20
0.7696782376557268
 30
0.0
 10
11.19794767207228
 20
0.7144497626726559
 30
0.0
  0
LINE
  5
BC
330
70
100
AcDbEntity
  8
0
 62
    18
420
        0
370
    25
100
AcDbLine
 10
11.19794767207228
 20
0.7144497626726559
 30
0.0
 11
11.19794767207228
 21
0.634449762672653
 31
0.0
  0
LINE
  5
BD
330
70
100
AcDbEntity
  8
0
 62
    18
420
        0
370
    25
100
AcDbLine
 10
11.39794767207228
 20
0.7144497626726559
 30
0.0
 11
11.39794767207228
 21
0.634449762672653
 31
0.0
  0
SPLINE
  5
BE
330
70
100
AcDbEntity
  8
0
 62
    18
420
        0
370
    25
100
AcDbSpline
210
0.0
220
0.0
230
1.0
 70
     8
 71
     3
 72
     8
 73
     4
 74
     0
 42
0.0000000001
 43
0.0000000001
 40
0.0
 40
0.0
 40
0.0
 40
0.0
 40
1.0
 40
1.0
 40
1.0
 40
1.0
 10
11.17794767207227
 20
0.6144497626726459
 30
0.0
 10
11.18899336706888
 20
0.6144497626726459
 30
0.0
 10
11.19794767207228
 20
0.6234040676760185
 30
0.0
 10
11.19794767207228
 20
0.634449762672653
 30
0.0
  0
SPLINE
  5
BF
330
70
100
AcDbEntity
  8
0
 62
    18
420
        0
370
    25
100
AcDbSpline
210
0.0
220
0.0
230
1.0
 70
     8
 71
     3
 72
     8
 73
     4
 74
     0
 42
0.0000000001
 43
0.0000000001
 40
0.0
 40
0.0
 40
0.0
 40
0.0
 40
1.0
 40
1.0
 40
1.0
 40
1.0
 10
11.39794767207228
 20
0.634449762672653
 30
0.0
 10
11.39794767207228
 20
0.6234040676760185
 30
0.0
 10
11.40690197707565
 20
0.6144497626726459
 30
0.0
 10
11.41794767207226
 20
0.6144497626726459
 30
0.0
  0
SPLINE
  5
C0
330
70
100
AcDbEntity
  8
0
 62
    18
420
        0
370
    25
100
AcDbSpline
210
0.0
220
0.0
230
1.0
 70
     8
 71
     3
 72
    11
 73
     7
 74
     0
 42
0.0000000001
 43
0.0000000001
 40
0.0
 40
0.0
 40
0.0
 40
0.0
 40
1.0
 40
1.0
 40
1.0
 40
2.0
 40
2.0
 40
2.0
 40
2.0
 10
12.03574294766283
 20
0.7144497626726559
 30
0.0
 10
12.03574294766283
 20
0.7696782376557268
 30
0.0
 10
11.99097142264589
 20
0.8144497626726408
 30
0.0
 10
11.93574294766282
 20
0.8144497626726408
 30
0.0
 10
11.88051447267975
 20
0.8144497626726408
 30
0.0
 10
11.83574294766281
 20
0.7696782376557268
 30
0.0
 10
11.83574294766281
 20
0.7144497626726559
 30
0.0
  0
LINE
  5
C1
330
70
100
AcDbEntity
  8
0
 62
    18
420
        0
370
    25
100
AcDbLine
 10
11.83574294766281
 20
0.7144497626726559
 30
0.0
 11
11.83574294766281
 21
0.634449762672653
 31
0.0
  0
LINE
  5
C2
330
70
100
AcDbEntity
  8
0
 62
    18
420
        0
370
    25
100
AcDbLine
 10
12.03574294766281
 20
0.7144497626726559
 30
0.0
 11
12.03574294766281
 21
0.634449762672653
 31
0.0
  0
SPLINE
  5
C3
330
70
100
AcDbEntity
  8
0
 62
    18
420
        0
370
    25
100
AcDbSpline
210
0.0
220
0.0
230
1.0
 70
     8
 71
     3
 72
     8
 73
     4
 74
     0
 42
0.0000000001
 43
0.0000000001
 40
0.0
 40
0.0
 40
0.0
 40
0.0
 40
1.0
 40
1.0
 40
1.0
 40
1.0
 10
11.81574294766283
 20
0.6144497626726459
 30
0.0
 10
11.82678864265944
 20
0.6144497626726459
 30
0.0
 10
11.83574294766281
 20
0.6234040676760185
 30
0.0
 10
11.83574294766281
 20
0.634449762672653
 30
0.0
  0
SPLINE
  5
C4
330
70
100
AcDbEntity
  8
0
 62
    18
420
        0
370
    25
100
AcDbSpline
210
0.0
220
0.0
230
1.0
 70
     8
 71
     3
 72
     8
 73
     4
 74
     0
 42
0.0000000001
 43
0.0000000001
 40
0.0
 40
0.0
 40
0.0
 40
0.0
 40
1.0
 40
1.0
 40
1.0
 40
1.0
 10
12.03574294766281
 20
0.634449762672653
 30
0.0
 10
12.03574294766281
 20
0.6234040676760185
 30
0.0
 10
12.04469725266621
 20
0.6144497626726459
 30
0.0
 10
12.05574294766282
 20
0.6144497626726459
 30
0.0
  0
SPLINE
  5
C5
330
70
100
AcDbEntity
  8
0
 62
    18
420
        0
370
    25
100
AcDbSpline
210
0.0
220
0.0
230
1.0
 70
     8
 71
     3
 72
    11
 73
     7
 74
     0
 42
0.0000000001
 43
0.0000000001
 40
0.0
 40
0.0
 40
0.0
 40
0.0
 40
1.0
 40
1.0
 40
1.0
 40
2.0
 40
2.0
 40
2.0
 40
2.0
 10
12.63862178145321
 20
0.7144497626726559
 30
0.0
 10
12.63862178145321
 20
0.7696782376557268
 30
0.0
 10
12.59385025643627
 20
0.8144497626726408
 30
0.0
 10
12.5386217814532
 20
0.8144497626726408
 30
0.0
 10
12.48339330647013
 20
0.8144497626726408
 30
0.0
 10
12.43862178145319
 20
0.7696782376557268
 30
0.0
 10
12.43862178145319
 20
0.7144497626726559
 30
0.0
  0
LINE
  5
C6
330
70
100
AcDbEntity
  8
0
 62
    18
420
        0
370
    25
100
AcDbLine
 10
12.43862178145322
 20
0.7144497626726559
 30
0.0
 11
12.43862178145319
 21
0.634449762672653
 31
0.0
  0
LINE
  5
C7
330
70
100
AcDbEntity
  8
0
 62
    18
420
        0
370
    25
100
AcDbLine
 10
12.63862178145321
 20
0.7144497626726559
 30
0.0
 11
12.63862178145321
 21
0.634449762672653
 31
0.0
  0
SPLINE
  5
C8
330
70
100
AcDbEntity
  8
0
 62
    18
420
        0
370
    25
100
AcDbSpline
210
0.0
220
0.0
230
1.0
 70
     8
 71
     3
 72
     8
 73
     4
 74
     0
 42
0.0000000001
 43
0.0000000001
 40
0.0
 40
0.0
 40
0.0
 40
0.0
 40
1.0
 40
1.0
 40
1.0
 40
1.0
 10
12.41862178145321
 20
0.6144497626726459
 30
0.0
 10
12.42966747644982
 20
0.6144497626726459
 30
0.0
 10
12.43862178145319
 20
0.6234040676760185
 30
0.0
 10
12.43862178145319
 20
0.634449762672653
 30
0.0
  0
SPLINE
  5
C9
330
70
100
AcDbEntity
  8
0
 62
    18
420
        0
370
    25
100
AcDbSpline
210
0.0
220
0.0
230
1.0
 70
     8
 71
     3
 72
     8
 73
     4
 74
     0
 42
0.0000000001
 43
0.0000000001
 40
0.0
 40
0.0
 40
0.0
 40
0.0
 40
1.0
 40
1.0
 40
1.0
 40
1.0
 10
12.63862178145321
 20
0.634449762672653
 30
0.0
 10
12.63862178145321
 20
0.6234040676760185
 30
0.0
 10
12.64757608645658
 20
0.6144497626726459
 30
0.0
 10
12.65862178145322
 20
0.6144497626726459
 30
0.0
  0
SPLINE
  5
CA
330
70
100
AcDbEntity
  8
0
 62
    18
420
        0
370
    25
100
AcDbSpline
210
0.0
220
0.0
230
1.0
 70
     8
 71
     3
 72
    11
 73
     7
 74
     0
 42
0.0000000001
 43
0.0000000001
 40
0.0
 40
0.0
 40
0.0
 40
0.0
 40
1.0
 40
1.0
 40
1.0
 40
2.0
 40
2.0
 40
2.0
 40
2.0
 10
13.20542798703289
 20
0.7144497626726559
 30
0.0
 10
13.20542798703289
 20
0.7696782376557268
 30
0.0
 10
13.16065646201597
 20
0.8144497626726408
 30
0.0
 10
13.1054279870329
 20
0.8144497626726408
 30
0.0
 10
13.05019951204983
 20
0.8144497626726408
 30
0.0
 10
13.00542798703289
 20
0.7696782376557268
 30
0.0
 10
13.00542798703289
 20
0.7144497626726559
 30
0.0
  0
LINE
  5
CB
330
70
100
AcDbEntity
  8
0
 62
    18
420
        0
370
    25
100
AcDbLine
 10
13.00542798703292
 20
0.7144497626726559
 30
0.0
 11
13.00542798703289
 21
0.634449762672653
 31
0.0
  0
LINE
  5
CC
330
70
100
AcDbEntity
  8
0
 62
    18
420
        0
370
    25
100
AcDbLine
 10
13.20542798703291
 20
0.7144497626726559
 30
0.0
 11
13.20542798703291
 21
0.634449762672653
 31
0.0
  0
SPLINE
  5
CD
330
70
100
AcDbEntity
  8
0
 62
    18
420
        0
370
    25
100
AcDbSpline
210
0.0
220
0.0
230
1.0
 70
     8
 71
     3
 72
     8
 73
     4
 74
     0
 42
0.0000000001
 43
0.0000000001
 40
0.0
 40
0.0
 40
0.0
 40
0.0
 40
1.0
 40
1.0
 40
1.0
 40
1.0
 10
12.98542798703291
 20
0.6144497626726459
 30
0.0
 10
12.99647368202952
 20
0.6144497626726459
 30
0.0
 10
13.00542798703289
 20
0.6234040676760185
 30
0.0
 10
13.00542798703289
 20
0.634449762672653
 30
0.0
  0
SPLINE
  5
CE
330
70
100
AcDbEntity
  8
0
 62
    18
420
        0
370
    25
100
AcDbSpline
210
0.0
220
0.0
230
1.0
 70
     8
 71
     3
 72
     8
 73
     4
 74
     0
 42
0.0000000001
 43
0.0000000001
 40
0.0
 40
0.0
 40
0.0
 40
0.0
 40
1.0
 40
1.0
 40
1.0
 40
1.0
 10
13.20542798703289
 20
0.634449762672653
 30
0.0
 10
13.20542798703289
 20
0.6234040676760185
 30
0.0
 10
13.21438229203628
 20
0.6144497626726459
 30
0.0
 10
13.22542798703289
 20
0.6144497626726459
 30
0.0
  0
SPLINE
  5
CF
330
70
100
AcDbEntity
  8
0
 62
    18
420
        0
370
    25
100
AcDbSpline
210
0.0
220
0.0
230
1.0
 70
     8
 71
     3
 72
    11
 73
     7
 74
     0
 42
0.0000000001
 43
0.0000000001
 40
0.0
 40
0.0
 40
0.0
 40
0.0
 40
1.0
 40
1.0
 40
1.0
 40
2.0
 40
2.0
 40
2.0
 40
2.0
 10
13.74164845947386
 20
0.7144497626726559
 30
0.0
 10
13.74164845947386
 20
0.7696782376557268
 30
0.0
 10
13.69687693445692
 20
0.8144497626726408
 30
0.0
 10
13.64164845947385
 20
0.8144497626726408
 30
0.0
 10
13.58641998449078
 20
0.8144497626726408
 30
0.0
 10
13.54164845947384
 20
0.7696782376557268
 30
0.0
 10
13.54164845947384
 20
0.7144497626726559
 30
0.0
  0
LINE
  5
D0
330
70
100
AcDbEntity
  8
0
 62
    18
420
        0
370
    25
100
AcDbLine
 10
13.54164845947386
 20
0.7144497626726559
 30
0.0
 11
13.54164845947386
 21
0.634449762672653
 31
0.0
  0
LINE
  5
D1
330
70
100
AcDbEntity
  8
0
 62
    18
420
        0
370
    25
100
AcDbLine
 10
13.74164845947386
 20
0.7144497626726559
 30
0.0
 11
13.74164845947386
 21
0.634449762672653
 31
0.0
  0
SPLINE
  5
D2
330
70
100
AcDbEntity
  8
0
 62
    18
420
        0
370
    25
100
AcDbSpline
210
0.0
220
0.0
230
1.0
 70
     8
 71
     3
 72
     8
 73
     4
 74
     0
 42
0.0000000001
 43
0.0000000001
 40
0.0
 40
0.0
 40
0.0
 40
0.0
 40
1.0
 40
1.0
 40
1.0
 40
1.0
 10
13.52164845947386
 20
0.6144497626726459
 30
0.0
 10
13.53269415447046
 20
0.6144497626726459
 30
0.0
 10
13.54164845947386
 20
0.6234040676760185
 30
0.0
 10
13.54164845947386
 20
0.634449762672653
 30
0.0
  0
SPLINE
  5
D3
330
70
100
AcDbEntity
  8
0
 62
    18
420
        0
370
    25
100
AcDbSpline
210
0.0
220
0.0
230
1.0
 70
     8
 71
     3
 72
     8
 73
     4
 74
     0
 42
0.0000000001
 43
0.0000000001
 40
0.0
 40
0.0
 40
0.0
 40
0.0
 40
1.0
 40
1.0
 40
1.0
 40
1.0
 10
13.74164845947386
 20
0.634449762672653
 30
0.0
 10
13.74164845947386
 20
0.6234040676760185
 30
0.0
 10
13.75060276447723
 20
0.6144497626726459
 30
0.0
 10
13.76164845947384
 20
0.6144497626726459
 30
0.0
  0
SPLINE
  5
D4
330
70
100
AcDbEntity
  8
0
 62
    18
420
        0
370
    25
100
AcDbSpline
210
0.0
220
0.0
230
1.0
 70
     8
 71
     3
 72
    11
 73
     7
 74
     0
 42
0.0000000001
 43
0.0000000001
 40
0.0
 40
0.0
 40
0.0
 40
0.0
 40
1.0
 40
1.0
 40
1.0
 40
2.0
 40
2.0
 40
2.0
 40
2.0
 10
14.24755397128486
 20
0.7144497626726559
 30
0.0
 10
14.24755397128486
 20
0.7696782376557268
 30
0.0
 10
14.20278244626795
 20
0.8144497626726408
 30
0.0
 10
14.14755397128488
 20
0.8144497626726408
 30
0.0
 10
14.09232549630178
 20
0.8144497626726408
 30
0.0
 10
14.04755397128487
 20
0.7696782376557268
 30
0.0
 10
14.04755397128487
 20
0.7144497626726559
 30
0.0
  0
LINE
  5
D5
330
70
100
AcDbEntity
  8
0
 62
    18
420
        0
370
    25
100
AcDbLine
 10
14.04755397128487
 20
0.7144497626726559
 30
0.0
 11
14.04755397128487
 21
0.634449762672653
 31
0.0
  0
LINE
  5
D6
330
70
100
AcDbEntity
  8
0
 62
    18
420
        0
370
    25
100
AcDbLine
 10
14.24755397128486
 20
0.7144497626726559
 30
0.0
 11
14.24755397128486
 21
0.634449762672653
 31
0.0
  0
SPLINE
  5
D7
330
70
100
AcDbEntity
  8
0
 62
    18
420
        0
370
    25
100
AcDbSpline
210
0.0
220
0.0
230
1.0
 70
     8
 71
     3
 72
     8
 73
     4
 74
     0
 42
0.0000000001
 43
0.0000000001
 40
0.0
 40
0.0
 40
0.0
 40
0.0
 40
1.0
 40
1.0
 40
1.0
 40
1.0
 10
14.02755397128486
 20
0.6144497626726459
 30
0.0
 10
14.03859966628149
 20
0.6144497626726459
 30
0.0
 10
14.04755397128487
 20
0.6234040676760185
 30
0.0
 10
14.04755397128487
 20
0.634449762672653
 30
0.0
  0
SPLINE
  5
D8
330
70
100
AcDbEntity
  8
0
 62
    18
420
        0
370
    25
100
AcDbSpline
210
0.0
220
0.0
230
1.0
 70
     8
 71
     3
 72
     8
 73
     4
 74
     0
 42
0.0000000001
 43
0.0000000001
 40
0.0
 40
0.0
 40
0.0
 40
0.0
 40
1.0
 40
1.0
 40
1.0
 40
1.0
 10
14.24755397128486
 20
0.634449762672653
 30
0.0
 10
14.24755397128486
 20
0.6234040676760185
 30
0.0
 10
14.25650827628826
 20
0.6144497626726459
 30
0.0
 10
14.26755397128487
 20
0.6144497626726459
 30
0.0
  0
SPLINE
  5
D9
330
70
100
AcDbEntity
  8
0
 62
    18
420
        0
370
    25
100
AcDbSpline
210
0.0
220
0.0
230
1.0
 70
     8
 71
     3
 72
    11
 73
     7
 74
     0
 42
0.0000000001
 43
0.0000000001
 40
0.0
 40
0.0
 40
0.0
 40
0.0
 40
1.0
 40
1.0
 40
1.0
 40
2.0
 40
2.0
 40
2.0
 40
2.0
 10
14.72511302640297
 20
0.7144497626726559
 30
0.0
 10
14.72511302640297
 20
0.7696782376557268
 30
0.0
 10
14.68034150138606
 20
0.8144497626726408
 30
0.0
 10
14.62511302640299
 20
0.8144497626726408
 30
0.0
 10
14.56988455141989
 20
0.8144497626726408
 30
0.0
 10
14.52511302640298
 20
0.7696782376557268
 30
0.0
 10
14.52511302640298
 20
0.7144497626726559
 30
0.0
  0
LINE
  5
DA
330
70
100
AcDbEntity
  8
0
 62
    18
420
        0
370
    25
100
AcDbLine
 10
14.52511302640298
 20
0.7144497626726559
 30
0.0
 11
14.52511302640298
 21
0.634449762672653
 31
0.0
  0
LINE
  5
DB
330
70
100
AcDbEntity
  8
0
 62
    18
420
        0
370
    25
100
AcDbLine
 10
14.72511302640297
 20
0.7144497626726559
 30
0.0
 11
14.72511302640297
 21
0.634449762672653
 31
0.0
  0
SPLINE
  5
DC
330
70
100
AcDbEntity
  8
0
 62
    18
420
        0
370
    25
100
AcDbSpline
210
0.0
220
0.0
230
1.0
 70
     8
 71
     3
 72
     8
 73
     4
 74
     0
 42
0.0000000001
 43
0.0000000001
 40
0.0
 40
0.0
 40
0.0
 40
0.0
 40
1.0
 40
1.0
 40
1.0
 40
1.0
 10
14.50511302640297
 20
0.6144497626726459
 30
0.0
 10
14.51615872139958
 20
0.6144497626726459
 30
0.0
 10
14.52511302640298
 20
0.6234040676760185
 30
0.0
 10
14.52511302640298
 20
0.634449762672653
 30
0.0
  0
SPLINE
  5
DD
330
70
100
AcDbEntity
  8
0
 62
    18
420
        0
370
    25
100
AcDbSpline
210
0.0
220
0.0
230
1.0
 70
     8
 71
     3
 72
     8
 73
     4
 74
     0
 42
0.0000000001
 43
0.0000000001
 40
0.0
 40
0.0
 40
0.0
 40
0.0
 40
1.0
 40
1.0
 40
1.0
 40
1.0
 10
14.72511302640297
 20
0.634449762672653
 30
0.0
 10
14.72511302640297
 20
0.6234040676760185
 30
0.0
 10
14.73406733140637
 20
0.6144497626726459
 30
0.0
 10
14.74511302640298
 20
0.6144497626726459
 30
0.0
  0
SPLINE
  5
DE
330
70
100
AcDbEntity
  8
0
 62
    18
420
        0
370
    25
100
AcDbSpline
210
0.0
220
0.0
230
1.0
 70
     8
 71
     3
 72
    11
 73
     7
 74
     0
 42
0.0000000001
 43
0.0000000001
 40
0.0
 40
0.0
 40
0.0
 40
0.0
 40
1.0
 40
1.0
 40
1.0
 40
2.0
 40
2.0
 40
2.0
 40
2.0
 10
15.17590042797777
 20
0.7144497626726559
 30
0.0
 10
15.17590042797777
 20
0.7696782376557268
 30
0.0
 10
15.13112890296085
 20
0.8144497626726408
 30
0.0
 10
15.07590042797778
 20
0.8144497626726408
 30
0.0
 10
15.02067195299469
 20
0.8144497626726408
 30
0.0
 10
14.97590042797777
 20
0.7696782376557268
 30
0.0
 10
14.97590042797777
 20
0.7144497626726559
 30
0.0
  0
LINE
  5
DF
330
70
100
AcDbEntity
  8
0
 62
    18
420
        0
370
    25
100
AcDbLine
 10
14.97590042797777
 20
0.7144497626726559
 30
0.0
 11
14.97590042797777
 21
0.634449762672653
 31
0.0
  0
LINE
  5
E0
330
70
100
AcDbEntity
  8
0
 62
    18
420
        0
370
    25
100
AcDbLine
 10
15.17590042797777
 20
0.7144497626726559
 30
0.0
 11
15.17590042797777
 21
0.634449762672653
 31
0.0
  0
SPLINE
  5
E1
330
70
100
AcDbEntity
  8
0
 62
    18
420
        0
370
    25
100
AcDbSpline
210
0.0
220
0.0
230
1.0
 70
     8
 71
     3
 72
     8
 73
     4
 74
     0
 42
0.0000000001
 43
0.0000000001
 40
0.0
 40
0.0
 40
0.0
 40
0.0
 40
1.0
 40
1.0
 40
1.0
 40
1.0
 10
14.95590042797777
 20
0.6144497626726459
 30
0.0
 10
14.9669461229744
 20
0.6144497626726459
 30
0.0
 10
14.97590042797777
 20
0.6234040676760185
 30
0.0
 10
14.97590042797777
 20
0.634449762672653
 30
0.0
  0
SPLINE
  5
E2
330
70
100
AcDbEntity
  8
0
 62
    18
420
        0
370
    25
100
AcDbSpline
210
0.0
220
0.0
230
1.0
 70
     8
 71
     3
 72
     8
 73
     4
 74
     0
 42
0.0000000001
 43
0.0000000001
 40
0.0
 40
0.0
 40
0.0
 40
0.0
 40
1.0
 40
1.0
 40
1.0
 40
1.0
 10
15.17590042797777
 20
0.634449762672653
 30
0.0
 10
15.17590042797777
 20
0.6234040676760185
 30
0.0
 10
15.18485473298117
 20
0.6144497626726459
 30
0.0
 10
15.19590042797777
 20
0.6144497626726459
 30
0.0
  0
SPLINE
  5
E3
330
70
100
AcDbEntity
  8
0
 62
    18
420
        0
370
    25
100
AcDbSpline
210
0.0
220
0.0
230
1.0
 70
     8
 71
     3
 72
    11
 73
     7
 74
     0
 42
0.0000000001
 43
0.0000000001
 40
0.0
 40
0.0
 40
0.0
 40
0.0
 40
1.0
 40
1.0
 40
1.0
 40
2.0
 40
2.0
 40
2.0
 40
2.0
 10
15.60149097915885
 20
0.7144497626726559
 30
0.0
 10
15.60149097915885
 20
0.7696782376557268
 30
0.0
 10
15.55671945414193
 20
0.8144497626726408
 30
0.0
 10
15.50149097915884
 20
0.8144497626726408
 30
0.0
 10
15.44626250417577
 20
0.8144497626726408
 30
0.0
 10
15.40149097915885
 20
0.7696782376557268
 30
0.0
 10
15.40149097915885
 20
0.7144497626726559
 30
0.0
  0
LINE
  5
E4
330
70
100
AcDbEntity
  8
0
 62
    18
420
        0
370
    25
100
AcDbLine
 10
15.40149097915885
 20
0.7144497626726559
 30
0.0
 11
15.40149097915885
 21
0.634449762672653
 31
0.0
  0
LINE
  5
E5
330
70
100
AcDbEntity
  8
0
 62
    18
420
        0
370
    25
100
AcDbLine
 10
15.60149097915885
 20
0.7144497626726559
 30
0.0
 11
15.60149097915885
 21
0.634449762672653
 31
0.0
  0
SPLINE
  5
E6
330
70
100
AcDbEntity
  8
0
 62
    18
420
        0
370
    25
100
AcDbSpline
210
0.0
220
0.0
230
1.0
 70
     8
 71
     3
 72
     8
 73
     4
 74
     0
 42
0.0000000001
 43
0.0000000001
 40
0.0
 40
0.0
 40
0.0
 40
0.0
 40
1.0
 40
1.0
 40
1.0
 40
1.0
 10
15.38149097915885
 20
0.6144497626726459
 30
0.0
 10
15.39253667415545
 20
0.6144497626726459
 30
0.0
 10
15.40149097915885
 20
0.6234040676760185
 30
0.0
 10
15.40149097915885
 20
0.634449762672653
 30
0.0
  0
SPLINE
  5
E7
330
70
100
AcDbEntity
  8
0
 62
    18
420
        0
370
    25
100
AcDbSpline
210
0.0
220
0.0
230
1.0
 70
     8
 71
     3
 72
     8
 73
     4
 74
     0
 42
0.0000000001
 43
0.0000000001
 40
0.0
 40
0.0
 40
0.0
 40
0.0
 40
1.0
 40
1.0
 40
1.0
 40
1.0
 10
15.60149097915885
 20
0.634449762672653
 30
0.0
 10
15.60149097915885
 20
0.6234040676760185
 30
0.0
 10
15.61044528416222
 20
0.6144497626726459
 30
0.0
 10
15.62149097915886
 20
0.6144497626726459
 30
0.0
  0
LINE
  5
E8
330
70
100
AcDbEntity
  8
0
 62
    18
420
        0
370
    25
100
AcDbLine
 10
-2.842997209817503
 20
0.7144497626726559
 30
0.0
 11
-2.842997209817503
 21
2.264449762672635
 31
0.0
  0
LINE
  5
E9
330
70
100
AcDbEntity
  8
0
 62
    18
420
        0
370
    25
100
AcDbLine
 10
12.53731775081244
 20
0.8144497626726408
 30
0.0
 11
12.53731775081244
 21
0.814441259831584
 31
0.0
  0
LINE
  5
EA
330
70
100
AcDbEntity
  8
0
 62
    18
420
        0
370
    25
100
AcDbLine
 10
15.38149097915885
 20
0.6144497626726459
 30
0.0
 11
15.19590042797777
 21
0.6144497626726459
 31
0.0
  0
LINE
  5
EB
330
70
100
AcDbEntity
  8
0
 62
    18
420
        0
370
    25
100
AcDbLine
 10
14.95590042797777
 20
0.6144497626726459
 30
0.0
 11
14.74511302640298
 21
0.6144497626726459
 31
0.0
  0
LINE
  5
EC
330
70
100
AcDbEntity
  8
0
 62
    18
420
        0
370
    25
100
AcDbLine
 10
14.50511302640297
 20
0.6144497626726459
 30
0.0
 11
14.26755397128487
 21
0.6144497626726459
 31
0.0
  0
LINE
  5
ED
330
70
100
AcDbEntity
  8
0
 62
    18
420
        0
370
    25
100
AcDbLine
 10
14.02755397128486
 20
0.6144497626726459
 30
0.0
 11
13.76164845947384
 21
0.6144497626726459
 31
0.0
  0
LINE
  5
EE
330
70
100
AcDbEntity
  8
0
 62
    18
420
        0
370
    25
100
AcDbLine
 10
13.52164845947386
 20
0.6144497626726459
 30
0.0
 11
13.22542798703289
 21
0.6144497626726459
 31
0.0
  0
LINE
  5
EF
330
70
100
AcDbEntity
  8
0
 62
    18
420
        0
370
    25
100
AcDbLine
 10
12.98542798703291
 20
0.6144497626726459
 30
0.0
 11
12.65862178145322
 21
0.6144497626726459
 31
0.0
  0
LINE
  5
F0
330
70
100
AcDbEntity
  8
0
 62
    18
420
        0
370
    25
100
AcDbLine
 10
12.41862178145321
 20
0.6144497626726459
 30
0.0
 11
12.05574294766282
 21
0.6144497626726459
 31
0.0
  0
LINE
  5
F1
330
70
100
AcDbEntity
  8
0
 62
    18
420
        0
370
    25
100
AcDbLine
 10
11.81574294766283
 20
0.6144497626726459
 30
0.0
 11
11.41794767207228
 21
0.6144497626726459
 31
0.0
  0
LINE
  5
F2
330
70
100
AcDbEntity
  8
0
 62
    18
420
        0
370
    25
100
AcDbLine
 10
11.17794767207227
 20
0.6144497626726459
 30
0.0
 11
10.74275082167853
 21
0.6144497626726459
 31
0.0
  0
LINE
  5
F3
330
70
100
AcDbEntity
  8
0
 62
    18
420
        0
370
    25
100
AcDbLine
 10
10.50275082167852
 20
0.6144497626726459
 30
0.0
 11
10.0270027901825
 21
0.6144497626726459
 31
0.0
  0
LINE
  5
F4
330
70
100
AcDbEntity
  8
0
 62
    18
420
        0
370
    25
100
AcDbLine
 10
9.787002790182491
 20
0.6144497626726459
 30
0.0
 11
9.26873507364707
 21
0.6144497626726459
 31
0.0
  0
LINE
  5
F5
330
70
100
AcDbEntity
  8
0
 62
    18
420
        0
370
    25
100
AcDbLine
 10
9.028735073647061
 20
0.6144497626726459
 30
0.0
 11
8.465585467347864
 21
0.6144497626726459
 31
0.0
  0
LINE
  5
F6
330
70
100
AcDbEntity
  8
0
 62
    18
420
        0
370
    25
100
AcDbLine
 10
8.225585467347855
 20
0.6144497626726459
 30
0.0
 11
7.614798065773053
 21
0.6144497626726459
 31
0.0
  0
LINE
  5
F7
330
70
100
AcDbEntity
  8
0
 62
    18
420
        0
370
    25
100
AcDbLine
 10
7.374798065773044
 20
0.6144497626726459
 30
0.0
 11
6.713223262623462
 21
0.6144497626726459
 31
0.0
  0
LINE
  5
F8
330
70
100
AcDbEntity
  8
0
 62
    18
420
        0
370
    25
100
AcDbLine
 10
6.473223262623453
 20
0.6144497626726459
 30
0.0
 11
5.757711451599789
 21
0.6144497626726459
 31
0.0
  0
LINE
  5
F9
330
70
100
AcDbEntity
  8
0
 62
    18
420
        0
370
    25
100
AcDbLine
 10
5.517711451599792
 20
0.6144497626726459
 30
0.0
 11
4.745900427977781
 21
0.6144497626726459
 31
0.0
  0
LINE
  5
FA
330
70
100
AcDbEntity
  8
0
 62
    18
420
        0
370
    25
100
AcDbLine
 10
4.505900427977786
 20
0.6144497626726459
 30
0.0
 11
3.673459483095901
 21
0.6144497626726459
 31
0.0
  0
LINE
  5
FB
330
70
100
AcDbEntity
  8
0
 62
    18
420
        0
370
    25
100
AcDbLine
 10
3.433459483095892
 20
0.6144497626726459
 30
0.0
 11
2.537632711442357
 21
0.6144497626726459
 31
0.0
  0
LINE
  5
FC
330
70
100
AcDbEntity
  8
0
 62
    18
420
        0
370
    25
100
AcDbLine
 10
2.297632711442348
 20
0.6144497626726459
 30
0.0
 11
1.334089404355735
 21
0.6144497626726459
 31
0.0
  0
LINE
  5
FD
330
70
100
AcDbEntity
  8
0
 62
    18
420
        0
370
    25
100
AcDbLine
 10
1.094089404355738
 20
0.6144497626726459
 30
0.0
 11
0.0592862547494204
 21
0.6144497626726459
 31
0.0
  0
LINE
  5
FE
330
70
100
AcDbEntity
  8
0
 62
    18
420
        0
370
    25
100
AcDbLine
 10
-0.1807137452505761
 20
0.6144497626726459
 30
0.0
 11
-1.29189485155526
 21
0.6144497626726459
 31
0.0
  0
LINE
  5
FF
330
70
100
AcDbEntity
  8
0
 62
    18
420
        0
370
    25
100
AcDbLine
 10
15.84299720981749
 20
2.364449762672645
 30
0.0
 11
-2.742997209817505
 21
2.364449762672645
 31
0.0
  0
SPLINE
  5
100
330
70
100
AcDbEntity
  8
0
 62
    18
420
        0
370
    25
100
AcDbSpline
210
0.0
220
0.0
230
1.0
 70
     8
 71
     3
 72
     8
 73
     4
 74
     0
 42
0.0000000001
 43
0.0000000001
 40
0.0
 40
0.0
 40
0.0
 40
0.0
 40
1.0
 40
1.0
 40
1.0
 40
1.0
 10
15.84299720981751
 20
2.364449762672645
 30
0.0
 10
15.79185747041535
 20
1.782237260601934
 30
0.0
 10
15.79185747041535
 20
1.196662264743357
 30
0.0
 10
15.84299720981749
 20
0.6144497626726459
 30
0.0
  0
CIRCLE
  5
101
330
70
100
AcDbEntity
  8
0
 62
    18
420
        0
370
    25
100
AcDbCircle
 10
-2.242997209817467
 20
1.489449762672645
 30
0.0
 40
0.25
  0
SPLINE
  5
102
330
70
100
AcDbEntity
  8
0
 62
    18
420
        0
370
    25
100
AcDbSpline
210
0.0
220
0.0
230
1.0
 70
     8
 71
     3
 72
     8
 73
     4
 74
     0
 42
0.0000000001
 43
0.0000000001
 40
0.0
 40
0.0
 40
0.0
 40
0.0
 40
1.0
 40
1.0
 40
1.0
 40
1.0
 10
-2.742997209817505
 20
2.364449762672645
 30
0.0
 10
-2.798225684800589
 20
2.364449762672645
 30
0.0
 10
-2.842997209817503
 20
2.319678237655731
 30
0.0
 10
-2.842997209817503
 20
2.264449762672635
 30
0.0
  0
SPLINE
  5
103
330
70
100
AcDbEntity
  8
0
 62
    18
420
        0
370
    25
100
AcDbSpline
210
0.0
220
0.0
230
1.0
 70
     8
 71
     3
 72
     8
 73
     4
 74
     0
 42
0.0000000001
 43
0.0000000001
 40
0.0
 40
0.0
 40
0.0
 40
0.0
 40
1.0
 40
1.0
 40
1.0
 40
1.0
 10
-2.842997209817503
 20
0.7144497626726559
 30
0.0
 10
-2.842997209817503
 20
0.6592212876895599
 30
0.0
 10
-2.798225684800589
 20
0.6144497626726459
 30
0.0
 10
-2.742997209817505
 20
0.6144497626726459
 30
0.0
  0
INSERT
  5
105
330
70
100
AcDbEntity
  8
0
100
AcDbBlockReference
  2
Block_0
 10
0.0
 20
0.0
 30
0.0
  0
INSERT
  5
118
330
70
100
AcDbEntity
  8
0
100
AcDbBlockReference
  2
Block_1
 10
0.0
 20
0.0
 30
0.0
  0
ENDSEC
  0
SECTION
  2
OBJECTS
  0
DICTIONARY
  5
C
330
0
100
AcDbDictionary
281
     1
  3
ACAD_COLOR
350
63
  3
ACAD_DETAILVIEWSTYLE
350
6A
  3
ACAD_GROUP
350
D
  3
ACAD_LAYOUT
350
62
  3
ACAD_MATERIAL
350
10
  3
ACAD_MLEADERSTYLE
350
66
  3
ACAD_MLINESTYLE
350
5F
  3
ACAD_PLOTSETTINGS
350
61
  3
ACAD_PLOTSTYLENAME
350
E
  3
ACAD_SCALELIST
350
42
  3
ACAD_SECTIONVIEWSTYLE
350
68
  3
ACAD_TABLESTYLE
350
64
  3
ACAD_VISUALSTYLE
350
29
  3
ACDB_RECOMPOSE_DATA
350
12B
  3
AcDbVariableDictionary
350
123
  0
DICTIONARY
  5
63
102
{ACAD_REACTORS
330
C
102
}
330
C
100
AcDbDictionary
281
     1
  0
DICTIONARY
  5
6A
102
{ACAD_REACTORS
330
C
102
}
330
C
100
AcDbDictionary
281
     1
  3
Imperial24
350
6B
  0
DICTIONARY
  5
D
102
{ACAD_REACTORS
330
C
102
}
330
C
100
AcDbDictionary
281
     1
  0
DICTIONARY
  5
62
102
{ACAD_REACTORS
330
C
102
}
330
C
100
AcDbDictionary
281
     1
  3
Layout1
350
6F
  3
Layout2
350
77
  3
Model
350
73
  0
DICTIONARY
  5
10
102
{ACAD_REACTORS
330
C
102
}
330
C
100
AcDbDictionary
281
     1
  3
ByBlock
350
19
  3
ByLayer
350
11
  3
Global
350
21
  0
DICTIONARY
  5
66
102
{ACAD_REACTORS
330
C
102
}
330
C
100
AcDbDictionary
281
     1
  3
Standard
350
67
  0
DICTIONARY
  5
5F
102
{ACAD_REACTORS
330
C
102
}
330
C
100
AcDbDictionary
281
     1
  3
Standard
350
60
  0
DICTIONARY
  5
61
102
{ACAD_REACTORS
330
C
102
}
330
C
100
AcDbDictionary
281
     1
  0
ACDBDICTIONARYWDFLT
  5
E
102
{ACAD_REACTORS
330
C
102
}
330
C
100
AcDbDictionary
281
     1
  3
Normal
350
F
100
AcDbDictionaryWithDefault
340
F
  0
DICTIONARY
  5
42
102
{ACAD_REACTORS
330
C
102
}
330
C
100
AcDbDictionary
281
     1
  3
A0
350
43
  3
A1
350
44
  3
A2
350
45
  3
A3
350
46
  3
A4
350
47
  3
A5
350
48
  3
A6
350
49
  3
A7
350
4A
  3
A8
350
4B
  3
A9
350
4C
  3
B0
350
4D
  3
B1
350
4E
  3
B2
350
4F
  3
B3
350
50
  3
B4
350
51
  3
B5
350
52
  3
B6
350
53
  0
DICTIONARY
  5
68
102
{ACAD_REACTORS
330
C
102
}
330
C
100
AcDbDictionary
281
     1
  3
Imperial24
350
69
  0
DICTIONARY
  5
64
102
{ACAD_REACTORS
330
C
102
}
330
C
100
AcDbDictionary
281
     1
  3
Standard
350
65
  0
DICTIONARY
  5
29
102
{ACAD_REACTORS
330
C
102
}
330
C
100
AcDbDictionary
281
     1
  3
2dWireframe
350
2F
  3
Basic
350
2E
  3
Brighten
350
35
  3
ColorChange
350
39
  3
Conceptual
350
32
  3
Dim
350
34
  3
EdgeColorOff
350
41
  3
Facepattern
350
38
  3
Flat
350
2A
  3
FlatWithEdges
350
2B
  3
Gouraud
350
2C
  3
GouraudWithEdges
350
2D
  3
Hidden
350
31
  3
JitterOff
350
3F
  3
Linepattern
350
37
  3
OverhangOff
350
40
  3
Realistic
350
33
  3
Shaded
350
3E
  3
Shaded with edges
350
3D
  3
Shades of Gray
350
3A
  3
Sketchy
350
3B
  3
Thicken
350
36
  3
Wireframe
350
30
  3
X-Ray
350
3C
  0
XRECORD
  5
12B
102
{ACAD_REACTORS
330
C
102
}
330
C
100
AcDbXrecord
280
     1
 90
        1
330
65
  0
DICTIONARY
  5
123
102
{ACAD_REACTORS
330
C
102
}
330
C
100
AcDbDictionary
281
     1
  3
CANNOSCALE
350
128
  3
CMLEADERSTYLE
350
125
  3
CTABLESTYLE
350
124
  3
CVIEWDETAILSTYLE
350
126
  3
CVIEWSECTIONSTYLE
350
127
  0
ACDBDETAILVIEWSTYLE
  5
6B
102
{ACAD_REACTORS
330
6A
102
}
330
6A
100
AcDbModelDocViewStyle
 70
     0
  3
Imperial24
290
     1
300
Imperial24
 90
        0
100
AcDbDetailViewStyle
 70
     0
 71
     0
 90
        3
 71
     1
340
55
 62
   256
 40
0.24
340
0
 62
   256
 40
0.24
300

 40
0.36
280
     3
 71
     2
340
5D
 90
       25
 62
   256
 71
     3
340
55
 62
   256
 40
0.24
 90
        1
 40
0.75
 90
        1
300
%<\AcVar ViewType \f "%tc1">% %<\AcVar ViewDetailId>%\PSCALE %<\AcVar ViewScale \f "%sn">%
 71
     4
340
5D
 90
       25
 62
   256
340
5D
 90
       25
 62
   256
280
     0
  0
LAYOUT
  5
6F
102
{ACAD_REACTORS
330
62
102
}
330
62
100
AcDbPlotSettings
  1

  2

  4

  6

 40
0.0
 41
0.0
 42
0.0
 43
0.0
 44
0.0
 45
0.0
 46
0.0
 47
0.0
 48
0.0
 49
0.0
140
0.0
141
0.0
142
1.0
143
1.0
 70
   688
 72
     0
 73
     0
 74
     5
  7

 75
    16
147
1.0
 76
     0
 77
     2
 78
   300
148
0.0
149
0.0
100
AcDbLayout
  1
Layout1
 70
     1
 71
     1
 10
0.0
 20
0.0
 11
12.0
 21
9.0
 12
0.0
 22
0.0
 32
0.0
 14
0.0
 24
0.0
 34
0.0
 15
0.0
 25
0.0
 35
0.0
146
0.0
 13
0.0
 23
0.0
 33
0.0
 16
1.0
 26
0.0
 36
0.0
 17
0.0
 27
1.0
 37
0.0
 76
     0
330
6C
  0
LAYOUT
  5
77
102
{ACAD_REACTORS
330
62
102
}
330
62
100
AcDbPlotSettings
  1

  2

  4

  6

 40
0.0
 41
0.0
 42
0.0
 43
0.0
 44
0.0
 45
0.0
 46
0.0
 47
0.0
 48
0.0
 49
0.0
140
0.0
141
0.0
142
1.0
143
1.0
 70
   688
 72
     0
 73
     0
 74
     5
  7

 75
    16
147
1.0
 76
     0
 77
     2
 78
   300
148
0.0
149
0.0
100
AcDbLayout
  1
Layout2
 70
     1
 71
     2
 10
0.0
 20
0.0
 11
12.0
 21
9.0
 12
0.0
 22
0.0
 32
0.0
 14
0.0
 24
0.0
 34
0.0
 15
0.0
 25
0.0
 35
0.0
146
0.0
 13
0.0
 23
0.0
 33
0.0
 16
1.0
 26
0.0
 36
0.0
 17
0.0
 27
1.0
 37
0.0
 76
     0
330
74
  0
LAYOUT
  5
73
102
{ACAD_REACTORS
330
62
102
}
330
62
100
AcDbPlotSettings
  1

  2

  4

  6

 40
0.0
 41
0.0
 42
0.0
 43
0.0
 44
0.0
 45
0.0
 46
0.0
 47
0.0
 48
0.0
 49
0.0
140
0.0
141
0.0
142
1.0
143
1.0
 70
  1712
 72
     0
 73
     0
 74
     0
  7

 75
     0
147
1.0
 76
     0
 77
     2
 78
   300
148
0.0
149
0.0
100
AcDbLayout
  1
Model
 70
     1
 71
     0
 10
0.0
 20
0.0
 11
12.0
 21
9.0
 12
0.0
 22
0.0
 32
0.0
 14
0.0
 24
0.0
 34
0.0
 15
0.0
 25
0.0
 35
0.0
146
0.0
 13
0.0
 23
0.0
 33
0.0
 16
1.0
 26
0.0
 36
0.0
 17
0.0
 27
1.0
 37
0.0
 76
     0
330
70
  0
MATERIAL
  5
19
102
{ACAD_XDICTIONARY
360
1A
102
}
102
{ACAD_REACTORS
330
10
102
}
330
10
100
AcDbMaterial
  1
ByBlock
 72
     0
 43
0.0208333333333333
 43
0.0
 43
0.0
 43
0.0
 43
0.0
 43
0.0208333333333333
 43
0.0
 43
0.0
 43
0.0
 43
0.0
 43
1.0
 43
0.0
 43
0.0
 43
0.0
 43
0.0
 43
1.0
 77
     0
 47
0.0208333333333333
 47
0.0
 47
0.0
 47
0.0
 47
0.0
 47
0.0208333333333333
 47
0.0
 47
0.0
 47
0.0
 47
0.0
 47
1.0
 47
0.0
 47
0.0
 47
0.0
 47
0.0
 47
1.0
171
     0
 49
0.0208333333333333
 49
0.0
 49
0.0
 49
0.0
 49
0.0
 49
0.0208333333333333
 49
0.0
 49
0.0
 49
0.0
 49
0.0
 49
1.0
 49
0.0
 49
0.0
 49
0.0
 49
0.0
 49
1.0
175
     0
142
0.0208333333333333
142
0.0
142
0.0
142
0.0
142
0.0
142
0.0208333333333333
142
0.0
142
0.0
142
0.0
142
0.0
142
1.0
142
0.0
142
0.0
142
0.0
142
0.0
142
1.0
179
     0
144
0.0208333333333333
144
0.0
144
0.0
144
0.0
144
0.0
144
0.0208333333333333
144
0.0
144
0.0
144
0.0
144
0.0
144
1.0
144
0.0
144
0.0
144
0.0
144
0.0
144
1.0
147
0.0208333333333333
147
0.0
147
0.0
147
0.0
147
0.0
147
0.0208333333333333
147
0.0
147
0.0
147
0.0
147
0.0
147
1.0
147
0.0
147
0.0
147
0.0
147
0.0
147
1.0
  0
MATERIAL
  5
11
102
{ACAD_XDICTIONARY
360
12
102
}
102
{ACAD_REACTORS
330
10
102
}
330
10
100
AcDbMaterial
  1
ByLayer
 72
     0
 43
0.0208333333333333
 43
0.0
 43
0.0
 43
0.0
 43
0.0
 43
0.0208333333333333
 43
0.0
 43
0.0
 43
0.0
 43
0.0
 43
1.0
 43
0.0
 43
0.0
 43
0.0
 43
0.0
 43
1.0
 77
     0
 47
0.0208333333333333
 47
0.0
 47
0.0
 47
0.0
 47
0.0
 47
0.0208333333333333
 47
0.0
 47
0.0
 47
0.0
 47
0.0
 47
1.0
 47
0.0
 47
0.0
 47
0.0
 47
0.0
 47
1.0
171
     0
 49
0.0208333333333333
 49
0.0
 49
0.0
 49
0.0
 49
0.0
 49
0.0208333333333333
 49
0.0
 49
0.0
 49
0.0
 49
0.0
 49
1.0
 49
0.0
 49
0.0
 49
0.0
 49
0.0
 49
1.0
175
     0
142
0.0208333333333333
142
0.0
142
0.0
142
0.0
142
0.0
142
0.0208333333333333
142
0.0
142
0.0
142
0.0
142
0.0
142
1.0
142
0.0
142
0.0
142
0.0
142
0.0
142
1.0
179
     0
144
0.0208333333333333
144
0.0
144
0.0
144
0.0
144
0.0
144
0.0208333333333333
144
0.0
144
0.0
144
0.0
144
0.0
144
1.0
144
0.0
144
0.0
144
0.0
144
0.0
144
1.0
147
0.0208333333333333
147
0.0
147
0.0
147
0.0
147
0.0
147
0.0208333333333333
147
0.0
147
0.0
147
0.0
147
0.0
147
1.0
147
0.0
147
0.0
147
0.0
147
0.0
147
1.0
  0
MATERIAL
  5
21
102
{ACAD_XDICTIONARY
360
22
102
}
102
{ACAD_REACTORS
330
10
102
}
330
10
100
AcDbMaterial
  1
Global
 72
     0
 43
0.0208333333333333
 43
0.0
 43
0.0
 43
0.0
 43
0.0
 43
0.0208333333333333
 43
0.0
 43
0.0
 43
0.0
 43
0.0
 43
1.0
 43
0.0
 43
0.0
 43
0.0
 43
0.0
 43
1.0
 77
     0
 47
0.0208333333333333
 47
0.0
 47
0.0
 47
0.0
 47
0.0
 47
0.0208333333333333
 47
0.0
 47
0.0
 47
0.0
 47
0.0
 47
1.0
 47
0.0
 47
0.0
 47
0.0
 47
0.0
 47
1.0
171
     0
 49
0.0208333333333333
 49
0.0
 49
0.0
 49
0.0
 49
0.0
 49
0.0208333333333333
 49
0.0
 49
0.0
 49
0.0
 49
0.0
 49
1.0
 49
0.0
 49
0.0
 49
0.0
 49
0.0
 49
1.0
175
     0
142
0.0208333333333333
142
0.0
142
0.0
142
0.0
142
0.0
142
0.0208333333333333
142
0.0
142
0.0
142
0.0
142
0.0
142
1.0
142
0.0
142
0.0
142
0.0
142
0.0
142
1.0
179
     0
144
0.0208333333333333
144
0.0
144
0.0
144
0.0
144
0.0
144
0.0208333333333333
144
0.0
144
0.0
144
0.0
144
0.0
144
1.0
144
0.0
144
0.0
144
0.0
144
0.0
144
1.0
147
0.0208333333333333
147
0.0
147
0.0
147
0.0
147
0.0
147
0.0208333333333333
147
0.0
147
0.0
147
0.0
147
0.0
147
1.0
147
0.0
147
0.0
147
0.0
147
0.0
147
1.0
  0
MLEADERSTYLE
  5
67
102
{ACAD_REACTORS
330
66
102
}
330
66
100
AcDbMLeaderStyle
179
     2
170
     2
171
     1
172
     0
 90
        2
 40
0.0
 41
0.0
173
     1
 91
-1056964608
340
5B
 92
       -2
290
     1
 42
0.09
291
     1
 43
0.36
  3
Standard
 44
0.18
300

342
55
174
     1
178
     6
175
     1
176
     0
 93
-1056964608
 45
0.18
292
     0
297
     0
 46
0.18
 94
-1056964608
 47
1.0
 49
1.0
140
1.0
293
     1
141
0.0
294
     1
177
     0
142
1.0
295
     1
296
     0
143
0.125
271
     0
272
     9
273
     9
298
     1
  0
MLINESTYLE
  5
60
102
{ACAD_REACTORS
330
5F
102
}
330
5F
100
AcDbMlineStyle
  2
STANDARD
 70
     0
  3

 62
   256
 51
90.0
 52
90.0
 71
     2
 49
0.5
 62
   256
  6
BYLAYER
 49
-0.5
 62
   256
  6
BYLAYER
  0
ACDBPLACEHOLDER
  5
F
102
{ACAD_REACTORS
330
E
102
}
330
E
  0
SCALE
  5
43
102
{ACAD_REACTORS
330
42
102
}
330
42
100
AcDbScale
 70
     0
300
1:1
140
1.0
141
1.0
290
     1
  0
SCALE
  5
44
102
{ACAD_REACTORS
330
42
102
}
330
42
100
AcDbScale
 70
     0
300
1/128" = 1'-0"
140
0.0078125
141
12.0
290
     0
  0
SCALE
  5
45
102
{ACAD_REACTORS
330
42
102
}
330
42
100
AcDbScale
 70
     0
300
1/64" = 1'-0"
140
0.015625
141
12.0
290
     0
  0
SCALE
  5
46
102
{ACAD_REACTORS
330
42
102
}
330
42
100
AcDbScale
 70
     0
300
1/32" = 1'-0"
140
0.03125
141
12.0
290
     0
  0
SCALE
  5
47
102
{ACAD_REACTORS
330
42
102
}
330
42
100
AcDbScale
 70
     0
300
1/16" = 1'-0"
140
0.0625
141
12.0
290
     0
  0
SCALE
  5
48
102
{ACAD_REACTORS
330
42
102
}
330
42
100
AcDbScale
 70
     0
300
3/32" = 1'-0"
140
0.09375
141
12.0
290
     0
  0
SCALE
  5
49
102
{ACAD_REACTORS
330
42
102
}
330
42
100
AcDbScale
 70
     0
300
1/8" = 1'-0"
140
0.125
141
12.0
290
     0
  0
SCALE
  5
4A
102
{ACAD_REACTORS
330
42
102
}
330
42
100
AcDbScale
 70
     0
300
3/16" = 1'-0"
140
0.1875
141
12.0
290
     0
  0
SCALE
  5
4B
102
{ACAD_REACTORS
330
42
102
}
330
42
100
AcDbScale
 70
     0
300
1/4" = 1'-0"
140
0.25
141
12.0
290
     0
  0
SCALE
  5
4C
102
{ACAD_REACTORS
330
42
102
}
330
42
100
AcDbScale
 70
     0
300
3/8" = 1'-0"
140
0.375
141
12.0
290
     0
  0
SCALE
  5
4D
102
{ACAD_REACTORS
330
42
102
}
330
42
100
AcDbScale
 70
     0
300
1/2" = 1'-0"
140
0.5
141
12.0
290
     0
  0
SCALE
  5
4E
102
{ACAD_REACTORS
330
42
102
}
330
42
100
AcDbScale
 70
     0
300
3/4" = 1'-0"
140
0.75
141
12.0
290
     0
  0
SCALE
  5
4F
102
{ACAD_REACTORS
330
42
102
}
330
42
100
AcDbScale
 70
     0
300
1" = 1'-0"
140
1.0
141
12.0
290
     0
  0
SCALE
  5
50
102
{ACAD_REACTORS
330
42
102
}
330
42
100
AcDbScale
 70
     0
300
1-1/2" = 1'-0"
140
1.5
141
12.0
290
     0
  0
SCALE
  5
51
102
{ACAD_REACTORS
330
42
102
}
330
42
100
AcDbScale
 70
     0
300
3" = 1'-0"
140
3.0
141
12.0
290
     0
  0
SCALE
  5
52
102
{ACAD_REACTORS
330
42
102
}
330
42
100
AcDbScale
 70
     0
300
6" = 1'-0"
140
6.0
141
12.0
290
     0
  0
SCALE
  5
53
102
{ACAD_REACTORS
330
42
102
}
330
42
100
AcDbScale
 70
     0
300
1'-0" = 1'-0"
140
12.0
141
12.0
290
     0
  0
ACDBSECTIONVIEWSTYLE
  5
69
102
{ACAD_REACTORS
330
68
102
}
330
68
100
AcDbModelDocViewStyle
 70
     0
  3
Imperial24
290
     1
300
Imperial24
 90
        0
100
AcDbSectionViewStyle
 70
     0
 71
     0
 90
       78
 71
     1
340
55
 62
   256
 40
0.24
340
0
340
0
 62
   256
 40
0.24
300
I, O, Q, S, X, Z
 40
0.48
 90
        3
 40
0.18
 90
        1
 71
     2
340
5D
 90
       25
 62
   256
340
5D
 90
       50
 62
   256
 40
0.24
 40
0.0
 40
0.24
 71
     3
340
55
 62
   256
 40
0.24
 90
        1
 40
0.75
 90
        1
300
%<\AcVar ViewType \f "%tc1">% %<\AcVar ViewSectionStartId>%-%<\AcVar ViewSectionEndId>%\PSCALE %<\AcVar ViewScale \f "%sn">%
 71
     4
 62
   256
 62
   257
300
ANSI31
 40
1.0
 90
        0
290
     0
290
     0
 90
        6
 40
0.0
 40
1.570796326794896
 40
0.2617993877991494
 40
1.308996938995747
 40
-0.2617993877991494
 40
1.832595714594046
  0
TABLESTYLE
  5
65
102
{ACAD_XDICTIONARY
360
129
102
}
102
{ACAD_REACTORS
330
64
102
}
330
64
100
AcDbTableStyle
280
     0
  3
Standard
 70
     0
 71
     0
 40
0.06
 41
0.06
280
     0
281
     0
  7
Standard
140
0.18
170
     2
 62
     0
 63
     7
283
     0
 90
      512
 91
        0
  1

274
    -2
284
     1
 64
     0
275
    -2
285
     1
 65
     0
276
    -2
286
     1
 66
     0
277
    -2
287
     1
 67
     0
278
    -2
288
     1
 68
     0
279
    -2
289
     1
 69
     0
  7
Standard
140
0.25
170
     5
 62
     0
 63
     7
283
     0
 90
      512
 91
        0
  1

274
    -2
284
     1
 64
     0
275
    -2
285
     1
 65
     0
276
    -2
286
     1
 66
     0
277
    -2
287
     1
 67
     0
278
    -2
288
     1
 68
     0
279
    -2
289
     1
 69
     0
  7
Standard
140
0.18
170
     5
 62
     0
 63
     7
283
     0
 90
      512
 91
        0
  1

274
    -2
284
     1
 64
     0
275
    -2
285
     1
 65
     0
276
    -2
286
     1
 66
     0
277
    -2
287
     1
 67
     0
278
    -2
288
     1
 68
     0
279
    -2
289
     1
 69
     0
  0
VISUALSTYLE
  5
2F
102
{ACAD_REACTORS
330
29
102
}
330
29
100
AcDbVisualStyle
  2
2dWireframe
 70
     4
177
     3
291
     0
 70
    58
 90
        0
176
     1
 90
        2
176
     1
 90
        0
176
     1
 90
        0
176
     1
 40
0.6
176
     1
 40
30.0
176
     1
 62
     7
420
 16777215
176
     1
 90
        1
176
     1
 90
        4
176
     1
 62
     7
176
     1
 62
   257
176
     1
 90
        1
176
     1
 90
        1
176
     1
 40
1.0
176
     1
 90
        0
176
     1
 62
   257
176
     1
 40
1.0
176
     1
 90
        1
176
     1
 90
        6
176
     1
 90
        2
176
     1
 62
     7
176
     1
 90
        5
176
     1
 90
        0
176
     1
 90
        0
176
     1
290
     0
176
     1
 90
        1
176
     1
 40
0.0
176
     1
 90
        0
176
     1
290
     1
176
     1
290
     1
176
     1
290
     0
176
     1
290
     0
176
     1
290
     0
176
     1
290
     0
176
     1
290
     0
176
     1
290
     0
176
     1
290
     0
176
     1
 90
       50
176
     1
 40
0.0
176
     1
 40
1.0
176
     1
 90
        0
176
     1
 62
    18
420
        0
176
     1
 90
       50
176
     1
 90
        3
176
     1
 62
     5
420
      255
176
     1
290
     0
176
     1
 90
       50
176
     1
 90
       50
176
     1
 90
       50
176
     1
290
     0
176
     1
 90
       50
176
     1
 62
   256
176
     0
 40
1.0
176
     0
 90
        2
176
     1
  1
strokes_ogs.tif
176
     1
290
     0
176
     1
 40
1.0
176
     1
 40
1.0
176
     1
  0
VISUALSTYLE
  5
2E
102
{ACAD_REACTORS
330
29
102
}
330
29
100
AcDbVisualStyle
  2
Basic
 70
     7
177
     3
291
     1
 70
    58
 90
        1
176
     1
 90
        0
176
     1
 90
        1
176
     1
 90
        0
176
     1
 40
0.6
176
     1
 40
30.0
176
     1
 62
     7
420
 16777215
176
     1
 90
        0
176
     1
 90
        4
176
     1
 62
     7
176
     1
 62
   257
176
     1
 90
        1
176
     1
 90
        1
176
     1
 40
1.0
176
     1
 90
        8
176
     1
 62
     7
176
     1
 40
1.0
176
     1
 90
        1
176
     1
 90
        6
176
     1
 90
        2
176
     1
 62
     7
176
     1
 90
        5
176
     1
 90
        0
176
     1
 90
        0
176
     1
290
     0
176
     1
 90
        1
176
     1
 40
0.0
176
     1
 90
        0
176
     1
290
     0
176
     1
290
     1
176
     1
290
     1
176
     1
290
     0
176
     1
290
     0
176
     1
290
     0
176
     1
290
     0
176
     1
290
     0
176
     1
290
     0
176
     1
 90
       50
176
     1
 40
0.0
176
     1
 40
1.0
176
     1
 90
        0
176
     1
 62
    18
420
        0
176
     1
 90
       50
176
     1
 90
        3
176
     1
 62
     5
420
      255
176
     1
290
     0
176
     1
 90
       50
176
     1
 90
       50
176
     1
 90
       50
176
     1
290
     0
176
     1
 90
       50
176
     1
 62
   256
176
     0
 40
1.0
176
     0
 90
        2
176
     1
  1
strokes_ogs.tif
176
     1
290
     0
176
     1
 40
1.0
176
     1
 40
1.0
176
     1
  0
VISUALSTYLE
  5
35
102
{ACAD_REACTORS
330
29
102
}
330
29
100
AcDbVisualStyle
  2
Brighten
 70
    12
177
     3
291
     1
 70
    58
 90
        2
176
     1
 90
        2
176
     1
 90
        0
176
     1
 90
        0
176
     1
 40
0.6
176
     1
 40
30.0
176
     1
 62
     7
420
 16777215
176
     1
 90
        1
176
     1
 90
        4
176
     1
 62
     7
176
     1
 62
   257
176
     1
 90
        1
176
     1
 90
        1
176
     1
 40
1.0
176
     1
 90
        8
176
     1
 62
     7
176
     1
 40
1.0
176
     1
 90
        1
176
     1
 90
        6
176
     1
 90
        2
176
     1
 62
     7
176
     1
 90
        5
176
     1
 90
        0
176
     1
 90
        0
176
     1
290
     0
176
     1
 90
        1
176
     1
 40
50.0
176
     1
 90
        0
176
     1
290
     0
176
     1
290
     1
176
     1
290
     1
176
     1
290
     0
176
     1
290
     0
176
     1
290
     0
176
     1
290
     0
176
     1
290
     0
176
     1
290
     0
176
     1
 90
       50
176
     1
 40
0.0
176
     1
 40
1.0
176
     1
 90
        0
176
     1
 62
    18
420
        0
176
     1
 90
       50
176
     1
 90
        3
176
     1
 62
     5
420
      255
176
     1
290
     0
176
     1
 90
       50
176
     1
 90
       50
176
     1
 90
       50
176
     1
290
     0
176
     1
 90
       50
176
     1
 62
   256
176
     0
 40
1.0
176
     0
 90
        2
176
     1
  1
strokes_ogs.tif
176
     1
290
     0
176
     1
 40
1.0
176
     1
 40
1.0
176
     1
  0
VISUALSTYLE
  5
39
102
{ACAD_REACTORS
330
29
102
}
330
29
100
AcDbVisualStyle
  2
ColorChange
 70
    16
177
     3
291
     1
 70
    58
 90
        2
176
     1
 90
        2
176
     1
 90
        3
176
     1
 90
        0
176
     1
 40
0.6
176
     1
 40
30.0
176
     1
 62
     8
420
  8421504
176
     1
 90
        1
176
     1
 90
        4
176
     1
 62
     7
176
     1
 62
   257
176
     1
 90
        1
176
     1
 90
        1
176
     1
 40
1.0
176
     1
 90
        8
176
     1
 62
     8
420
  8421504
176
     1
 40
1.0
176
     1
 90
        1
176
     1
 90
        6
176
     1
 90
        2
176
     1
 62
     7
176
     1
 90
        5
176
     1
 90
        0
176
     1
 90
        0
176
     1
290
     0
176
     1
 90
        1
176
     1
 40
0.0
176
     1
 90
        0
176
     1
290
     0
176
     1
290
     1
176
     1
290
     1
176
     1
290
     0
176
     1
290
     0
176
     1
290
     0
176
     1
290
     0
176
     1
290
     0
176
     1
290
     0
176
     1
 90
       50
176
     1
 40
0.0
176
     1
 40
1.0
176
     1
 90
        0
176
     1
 62
    18
420
        0
176
     1
 90
       50
176
     1
 90
        3
176
     1
 62
     5
420
      255
176
     1
290
     0
176
     1
 90
       50
176
     1
 90
       50
176
     1
 90
       50
176
     1
290
     0
176
     1
 90
       50
176
     1
 62
   256
176
     0
 40
1.0
176
     0
 90
        2
176
     1
  1
strokes_ogs.tif
176
     1
290
     0
176
     1
 40
1.0
176
     1
 40
1.0
176
     1
  0
VISUALSTYLE
  5
32
102
{ACAD_REACTORS
330
29
102
}
330
29
100
AcDbVisualStyle
  2
Conceptual
 70
     9
177
     3
291
     0
 70
    58
 90
        3
176
     1
 90
        2
176
     1
 90
        0
176
     1
 90
        0
176
     1
 40
0.6
176
     1
 40
30.0
176
     1
 62
     7
420
 16777215
176
     1
 90
        2
176
     1
 90
        2
176
     1
 62
     7
176
     1
 62
   257
176
     1
 90
        1
176
     1
 90
        1
176
     1
 40
179.0
176
     1
 90
        8
176
     1
 62
     7
176
     1
 40
1.0
176
     1
 90
        1
176
     1
 90
        6
176
     1
 90
        2
176
     1
 62
     7
176
     1
 90
        3
176
     1
 90
        0
176
     1
 90
        0
176
     1
290
     0
176
     1
 90
        1
176
     1
 40
0.0
176
     1
 90
        0
176
     1
290
     0
176
     1
290
     1
176
     1
290
     1
176
     1
290
     0
176
     1
290
     0
176
     1
290
     0
176
     1
290
     0
176
     1
290
     0
176
     1
290
     0
176
     1
 90
       50
176
     1
 40
0.0
176
     1
 40
1.0
176
     1
 90
        0
176
     1
 62
    18
420
        0
176
     1
 90
       50
176
     1
 90
        3
176
     1
 62
     5
420
      255
176
     1
290
     0
176
     1
 90
       50
176
     1
 90
       50
176
     1
 90
       50
176
     1
290
     0
176
     1
 90
       50
176
     1
 62
   256
176
     0
 40
1.0
176
     0
 90
        2
176
     1
  1
strokes_ogs.tif
176
     1
290
     0
176
     1
 40
1.0
176
     1
 40
1.0
176
     1
  0
VISUALSTYLE
  5
34
102
{ACAD_REACTORS
330
29
102
}
330
29
100
AcDbVisualStyle
  2
Dim
 70
    11
177
     3
291
     1
 70
    58
 90
        2
176
     1
 90
        2
176
     1
 90
        0
176
     1
 90
        0
176
     1
 40
0.6
176
     1
 40
30.0
176
     1
 62
     7
420
 16777215
176
     1
 90
        1
176
     1
 90
        4
176
     1
 62
     7
176
     1
 62
   257
176
     1
 90
        1
176
     1
 90
        1
176
     1
 40
1.0
176
     1
 90
        8
176
     1
 62
     7
176
     1
 40
1.0
176
     1
 90
        1
176
     1
 90
        6
176
     1
 90
        2
176
     1
 62
     7
176
     1
 90
        5
176
     1
 90
        0
176
     1
 90
        0
176
     1
290
     0
176
     1
 90
        1
176
     1
 40
-50.0
176
     1
 90
        0
176
     1
290
     0
176
     1
290
     1
176
     1
290
     1
176
     1
290
     0
176
     1
290
     0
176
     1
290
     0
176
     1
290
     0
176
     1
290
     0
176
     1
290
     0
176
     1
 90
       50
176
     1
 40
0.0
176
     1
 40
1.0
176
     1
 90
        0
176
     1
 62
    18
420
        0
176
     1
 90
       50
176
     1
 90
        3
176
     1
 62
     5
420
      255
176
     1
290
     0
176
     1
 90
       50
176
     1
 90
       50
176
     1
 90
       50
176
     1
290
     0
176
     1
 90
       50
176
     1
 62
   256
176
     0
 40
1.0
176
     0
 90
        2
176
     1
  1
strokes_ogs.tif
176
     1
290
     0
176
     1
 40
1.0
176
     1
 40
1.0
176
     1
  0
VISUALSTYLE
  5
41
102
{ACAD_REACTORS
330
29
102
}
330
29
100
AcDbVisualStyle
  2
EdgeColorOff
 70
    22
177
     3
291
     1
 70
    58
 90
        2
176
     0
 90
        2
176
     0
 90
        0
176
     0
 90
        0
176
     0
 40
0.6
176
     0
 40
30.0
176
     0
 62
     7
420
 16777215
176
     0
 90
        1
176
     0
 90
        4
176
     0
 62
     7
176
     0
 62
   257
176
     0
 90
        1
176
     0
 90
        1
176
     0
 40
1.0
176
     0
 90
        8
176
     2
 62
     7
176
     0
 40
1.0
176
     0
 90
        1
176
     0
 90
        6
176
     0
 90
        2
176
     0
 62
     7
176
     0
 90
        5
176
     0
 90
        0
176
     0
 90
        0
176
     0
290
     0
176
     0
 90
        1
176
     0
 40
0.0
176
     0
 90
        0
176
     0
290
     0
176
     0
290
     1
176
     0
290
     1
176
     0
290
     0
176
     0
290
     0
176
     0
290
     0
176
     0
290
     0
176
     0
290
     0
176
     0
290
     0
176
     0
 90
       50
176
     0
 40
0.0
176
     0
 40
1.0
176
     0
 90
        0
176
     0
 62
    18
420
        0
176
     0
 90
       50
176
     0
 90
        3
176
     0
 62
     5
420
      255
176
     0
290
     0
176
     0
 90
       50
176
     0
 90
       50
176
     0
 90
       50
176
     0
290
     0
176
     0
 90
       50
176
     0
 62
   256
176
     0
 40
1.0
176
     0
 90
        2
176
     0
  1
strokes_ogs.tif
176
     0
290
     0
176
     0
 40
1.0
176
     0
 40
1.0
176
     0
  0
VISUALSTYLE
  5
38
102
{ACAD_REACTORS
330
29
102
}
330
29
100
AcDbVisualStyle
  2
Facepattern
 70
    15
177
     3
291
     1
 70
    58
 90
        2
176
     1
 90
        2
176
     1
 90
        0
176
     1
 90
        0
176
     1
 40
0.6
176
     1
 40
30.0
176
     1
 62
     7
420
 16777215
176
     1
 90
        1
176
     1
 90
        4
176
     1
 62
     7
176
     1
 62
   257
176
     1
 90
        1
176
     1
 90
        1
176
     1
 40
1.0
176
     1
 90
        8
176
     1
 62
     7
176
     1
 40
1.0
176
     1
 90
        1
176
     1
 90
        6
176
     1
 90
        2
176
     1
 62
     7
176
     1
 90
        5
176
     1
 90
        0
176
     1
 90
        0
176
     1
290
     0
176
     1
 90
        1
176
     1
 40
0.0
176
     1
 90
        0
176
     1
290
     0
176
     1
290
     1
176
     1
290
     1
176
     1
290
     0
176
     1
290
     0
176
     1
290
     0
176
     1
290
     0
176
     1
290
     0
176
     1
290
     0
176
     1
 90
       50
176
     1
 40
0.0
176
     1
 40
1.0
176
     1
 90
        0
176
     1
 62
    18
420
        0
176
     1
 90
       50
176
     1
 90
        3
176
     1
 62
     5
420
      255
176
     1
290
     0
176
     1
 90
       50
176
     1
 90
       50
176
     1
 90
       50
176
     1
290
     0
176
     1
 90
       50
176
     1
 62
   256
176
     0
 40
1.0
176
     0
 90
        2
176
     1
  1
strokes_ogs.tif
176
     1
290
     0
176
     1
 40
1.0
176
     1
 40
1.0
176
     1
  0
VISUALSTYLE
  5
2A
102
{ACAD_REACTORS
330
29
102
}
330
29
100
AcDbVisualStyle
  2
Flat
 70
     0
177
     3
291
     1
 70
    58
 90
        2
176
     1
 90
        1
176
     1
 90
        1
176
     1
 90
        2
176
     1
 40
0.6
176
     1
 40
30.0
176
     1
 62
     7
420
 16777215
176
     1
 90
        0
176
     1
 90
        0
176
     1
 62
     7
176
     1
 62
   257
176
     1
 90
        1
176
     1
 90
        1
176
     1
 40
1.0
176
     1
 90
        8
176
     1
 62
     7
176
     1
 40
1.0
176
     1
 90
        1
176
     1
 90
        6
176
     1
 90
        2
176
     1
 62
     7
176
     1
 90
        5
176
     1
 90
        0
176
     1
 90
        0
176
     1
290
     0
176
     1
 90
       13
176
     1
 40
0.0
176
     1
 90
        0
176
     1
290
     0
176
     1
290
     1
176
     1
290
     1
176
     1
290
     0
176
     1
290
     0
176
     1
290
     0
176
     1
290
     0
176
     1
290
     0
176
     1
290
     0
176
     1
 90
       50
176
     1
 40
0.0
176
     1
 40
1.0
176
     1
 90
        0
176
     1
 62
    18
420
        0
176
     1
 90
       50
176
     1
 90
        3
176
     1
 62
     5
420
      255
176
     1
290
     0
176
     1
 90
       50
176
     1
 90
       50
176
     1
 90
       50
176
     1
290
     0
176
     1
 90
       50
176
     1
 62
   256
176
     0
 40
1.0
176
     0
 90
        2
176
     1
  1
strokes_ogs.tif
176
     1
290
     0
176
     1
 40
1.0
176
     1
 40
1.0
176
     1
  0
VISUALSTYLE
  5
2B
102
{ACAD_REACTORS
330
29
102
}
330
29
100
AcDbVisualStyle
  2
FlatWithEdges
 70
     1
177
     3
291
     1
 70
    58
 90
        2
176
     1
 90
        1
176
     1
 90
        1
176
     1
 90
        2
176
     1
 40
0.6
176
     1
 40
30.0
176
     1
 62
     7
420
 16777215
176
     1
 90
        1
176
     1
 90
        0
176
     1
 62
     7
176
     1
 62
   257
176
     1
 90
        1
176
     1
 90
        1
176
     1
 40
1.0
176
     1
 90
        0
176
     1
 62
   257
176
     1
 40
1.0
176
     1
 90
        1
176
     1
 90
        6
176
     1
 90
        2
176
     1
 62
     7
176
     1
 90
        5
176
     1
 90
        0
176
     1
 90
        0
176
     1
290
     0
176
     1
 90
       13
176
     1
 40
0.0
176
     1
 90
        0
176
     1
290
     0
176
     1
290
     1
176
     1
290
     1
176
     1
290
     0
176
     1
290
     0
176
     1
290
     0
176
     1
290
     0
176
     1
290
     0
176
     1
290
     0
176
     1
 90
       50
176
     1
 40
0.0
176
     1
 40
1.0
176
     1
 90
        0
176
     1
 62
    18
420
        0
176
     1
 90
       50
176
     1
 90
        3
176
     1
 62
     5
420
      255
176
     1
290
     0
176
     1
 90
       50
176
     1
 90
       50
176
     1
 90
       50
176
     1
290
     0
176
     1
 90
       50
176
     1
 62
   256
176
     0
 40
1.0
176
     0
 90
        2
176
     1
  1
strokes_ogs.tif
176
     1
290
     0
176
     1
 40
1.0
176
     1
 40
1.0
176
     1
  0
VISUALSTYLE
  5
2C
102
{ACAD_REACTORS
330
29
102
}
330
29
100
AcDbVisualStyle
  2
Gouraud
 70
     2
177
     3
291
     1
 70
    58
 90
        2
176
     1
 90
        2
176
     1
 90
        1
176
     1
 90
        2
176
     1
 40
0.6
176
     1
 40
30.0
176
     1
 62
     7
420
 16777215
176
     1
 90
        0
176
     1
 90
        0
176
     1
 62
     7
176
     1
 62
   257
176
     1
 90
        1
176
     1
 90
        1
176
     1
 40
1.0
176
     1
 90
        0
176
     1
 62
     7
176
     1
 40
1.0
176
     1
 90
        1
176
     1
 90
        6
176
     1
 90
        2
176
     1
 62
     7
176
     1
 90
        5
176
     1
 90
        0
176
     1
 90
        0
176
     1
290
     0
176
     1
 90
       13
176
     1
 40
0.0
176
     1
 90
        0
176
     1
290
     0
176
     1
290
     1
176
     1
290
     1
176
     1
290
     0
176
     1
290
     0
176
     1
290
     0
176
     1
290
     0
176
     1
290
     0
176
     1
290
     0
176
     1
 90
       50
176
     1
 40
0.0
176
     1
 40
1.0
176
     1
 90
        0
176
     1
 62
    18
420
        0
176
     1
 90
       50
176
     1
 90
        3
176
     1
 62
     5
420
      255
176
     1
290
     0
176
     1
 90
       50
176
     1
 90
       50
176
     1
 90
       50
176
     1
290
     0
176
     1
 90
       50
176
     1
 62
   256
176
     0
 40
1.0
176
     0
 90
        2
176
     1
  1
strokes_ogs.tif
176
     1
290
     0
176
     1
 40
1.0
176
     1
 40
1.0
176
     1
  0
VISUALSTYLE
  5
2D
102
{ACAD_REACTORS
330
29
102
}
330
29
100
AcDbVisualStyle
  2
GouraudWithEdges
 70
     3
177
     3
291
     1
 70
    58
 90
        2
176
     1
 90
        2
176
     1
 90
        1
176
     1
 90
        2
176
     1
 40
0.6
176
     1
 40
30.0
176
     1
 62
     7
420
 16777215
176
     1
 90
        1
176
     1
 90
        0
176
     1
 62
     7
176
     1
 62
   257
176
     1
 90
        1
176
     1
 90
        1
176
     1
 40
1.0
176
     1
 90
        0
176
     1
 62
   257
176
     1
 40
1.0
176
     1
 90
        1
176
     1
 90
        6
176
     1
 90
        2
176
     1
 62
     7
176
     1
 90
        5
176
     1
 90
        0
176
     1
 90
        0
176
     1
290
     0
176
     1
 90
       13
176
     1
 40
0.0
176
     1
 90
        0
176
     1
290
     0
176
     1
290
     1
176
     1
290
     1
176
     1
290
     0
176
     1
290
     0
176
     1
290
     0
176
     1
290
     0
176
     1
290
     0
176
     1
290
     0
176
     1
 90
       50
176
     1
 40
0.0
176
     1
 40
1.0
176
     1
 90
        0
176
     1
 62
    18
420
        0
176
     1
 90
       50
176
     1
 90
        3
176
     1
 62
     5
420
      255
176
     1
290
     0
176
     1
 90
       50
176
     1
 90
       50
176
     1
 90
       50
176
     1
290
     0
176
     1
 90
       50
176
     1
 62
   256
176
     0
 40
1.0
176
     0
 90
        2
176
     1
  1
strokes_ogs.tif
176
     1
290
     0
176
     1
 40
1.0
176
     1
 40
1.0
176
     1
  0
VISUALSTYLE
  5
31
102
{ACAD_REACTORS
330
29
102
}
330
29
100
AcDbVisualStyle
  2
Hidden
 70
     6
177
     3
291
     0
 70
    58
 90
        1
176
     1
 90
        2
176
     1
 90
        2
176
     1
 90
        0
176
     1
 40
0.6
176
     1
 40
30.0
176
     1
 62
     7
420
 16777215
176
     1
 90
        2
176
     1
 90
        2
176
     1
 62
     7
176
     1
 62
   257
176
     1
 90
        2
176
     1
 90
        1
176
     1
 40
40.0
176
     1
 90
        0
176
     1
 62
   257
176
     1
 40
1.0
176
     1
 90
        1
176
     1
 90
        6
176
     1
 90
        2
176
     1
 62
     7
176
     1
 90
        3
176
     1
 90
        0
176
     1
 90
        0
176
     1
290
     0
176
     1
 90
        1
176
     1
 40
0.0
176
     1
 90
        0
176
     1
290
     0
176
     1
290
     1
176
     1
290
     1
176
     1
290
     0
176
     1
290
     0
176
     1
290
     0
176
     1
290
     0
176
     1
290
     0
176
     1
290
     0
176
     1
 90
       50
176
     1
 40
0.0
176
     1
 40
1.0
176
     1
 90
        0
176
     1
 62
    18
420
        0
176
     1
 90
       50
176
     1
 90
        3
176
     1
 62
     5
420
      255
176
     1
290
     0
176
     1
 90
       50
176
     1
 90
       50
176
     1
 90
       50
176
     1
290
     0
176
     1
 90
       50
176
     1
 62
   256
176
     0
 40
1.0
176
     0
 90
        2
176
     1
  1
strokes_ogs.tif
176
     1
290
     0
176
     1
 40
1.0
176
     1
 40
1.0
176
     1
  0
VISUALSTYLE
  5
3F
102
{ACAD_REACTORS
330
29
102
}
330
29
100
AcDbVisualStyle
  2
JitterOff
 70
    20
177
     3
291
     1
 70
    58
 90
        2
176
     0
 90
        2
176
     0
 90
        0
176
     0
 90
        0
176
     0
 40
0.6
176
     0
 40
30.0
176
     0
 62
     7
420
 16777215
176
     0
 90
        1
176
     0
 90
        4
176
     0
 62
     7
176
     0
 62
   257
176
     0
 90
        1
176
     0
 90
        1
176
     0
 40
1.0
176
     0
 90
       10
176
     2
 62
     7
176
     0
 40
1.0
176
     0
 90
        1
176
     0
 90
        6
176
     0
 90
        2
176
     0
 62
     7
176
     0
 90
        5
176
     0
 90
        0
176
     0
 90
        0
176
     0
290
     0
176
     0
 90
        1
176
     0
 40
0.0
176
     0
 90
        0
176
     0
290
     0
176
     0
290
     1
176
     0
290
     1
176
     0
290
     0
176
     0
290
     0
176
     0
290
     0
176
     0
290
     0
176
     0
290
     0
176
     0
290
     0
176
     0
 90
       50
176
     0
 40
0.0
176
     0
 40
1.0
176
     0
 90
        0
176
     0
 62
    18
420
        0
176
     0
 90
       50
176
     0
 90
        3
176
     0
 62
     5
420
      255
176
     0
290
     0
176
     0
 90
       50
176
     0
 90
       50
176
     0
 90
       50
176
     0
290
     0
176
     0
 90
       50
176
     0
 62
   256
176
     0
 40
1.0
176
     0
 90
        2
176
     0
  1
strokes_ogs.tif
176
     0
290
     0
176
     0
 40
1.0
176
     0
 40
1.0
176
     0
  0
VISUALSTYLE
  5
37
102
{ACAD_REACTORS
330
29
102
}
330
29
100
AcDbVisualStyle
  2
Linepattern
 70
    14
177
     3
291
     1
 70
    58
 90
        2
176
     1
 90
        2
176
     1
 90
        0
176
     1
 90
        0
176
     1
 40
0.6
176
     1
 40
30.0
176
     1
 62
     7
420
 16777215
176
     1
 90
        1
176
     1
 90
        4
176
     1
 62
     7
176
     1
 62
   257
176
     1
 90
        7
176
     1
 90
        7
176
     1
 40
1.0
176
     1
 90
        8
176
     1
 62
     7
176
     1
 40
1.0
176
     1
 90
        1
176
     1
 90
        6
176
     1
 90
        2
176
     1
 62
     7
176
     1
 90
        5
176
     1
 90
        0
176
     1
 90
        0
176
     1
290
     0
176
     1
 90
        1
176
     1
 40
0.0
176
     1
 90
        0
176
     1
290
     0
176
     1
290
     1
176
     1
290
     1
176
     1
290
     0
176
     1
290
     0
176
     1
290
     0
176
     1
290
     0
176
     1
290
     0
176
     1
290
     0
176
     1
 90
       50
176
     1
 40
0.0
176
     1
 40
1.0
176
     1
 90
        0
176
     1
 62
    18
420
        0
176
     1
 90
       50
176
     1
 90
        3
176
     1
 62
     5
420
      255
176
     1
290
     0
176
     1
 90
       50
176
     1
 90
       50
176
     1
 90
       50
176
     1
290
     0
176
     1
 90
       50
176
     1
 62
   256
176
     0
 40
1.0
176
     0
 90
        2
176
     1
  1
strokes_ogs.tif
176
     1
290
     0
176
     1
 40
1.0
176
     1
 40
1.0
176
     1
  0
VISUALSTYLE
  5
40
102
{ACAD_REACTORS
330
29
102
}
330
29
100
AcDbVisualStyle
  2
OverhangOff
 70
    21
177
     3
291
     1
 70
    58
 90
        2
176
     0
 90
        2
176
     0
 90
        0
176
     0
 90
        0
176
     0
 40
0.6
176
     0
 40
30.0
176
     0
 62
     7
420
 16777215
176
     0
 90
        1
176
     0
 90
        4
176
     0
 62
     7
176
     0
 62
   257
176
     0
 90
        1
176
     0
 90
        1
176
     0
 40
1.0
176
     0
 90
        9
176
     2
 62
     7
176
     0
 40
1.0
176
     0
 90
        1
176
     0
 90
        6
176
     0
 90
        2
176
     0
 62
     7
176
     0
 90
        5
176
     0
 90
        0
176
     0
 90
        0
176
     0
290
     0
176
     0
 90
        1
176
     0
 40
0.0
176
     0
 90
        0
176
     0
290
     0
176
     0
290
     1
176
     0
290
     1
176
     0
290
     0
176
     0
290
     0
176
     0
290
     0
176
     0
290
     0
176
     0
290
     0
176
     0
290
     0
176
     0
 90
       50
176
     0
 40
0.0
176
     0
 40
1.0
176
     0
 90
        0
176
     0
 62
    18
420
        0
176
     0
 90
       50
176
     0
 90
        3
176
     0
 62
     5
420
      255
176
     0
290
     0
176
     0
 90
       50
176
     0
 90
       50
176
     0
 90
       50
176
     0
290
     0
176
     0
 90
       50
176
     0
 62
   256
176
     0
 40
1.0
176
     0
 90
        2
176
     0
  1
strokes_ogs.tif
176
     0
290
     0
176
     0
 40
1.0
176
     0
 40
1.0
176
     0
  0
VISUALSTYLE
  5
33
102
{ACAD_REACTORS
330
29
102
}
330
29
100
AcDbVisualStyle
  2
Realistic
 70
     8
177
     3
291
     0
 70
    58
 90
        2
176
     1
 90
        3
176
     1
 90
        0
176
     1
 90
        2
176
     1
 40
0.6
176
     1
 40
30.0
176
     1
 62
     7
420
 16777215
176
     1
 90
        0
176
     1
 90
        0
176
     1
 62
     7
176
     1
 62
   257
176
     1
 90
        1
176
     1
 90
        1
176
     1
 40
1.0
176
     1
 90
        8
176
     1
 62
   257
176
     1
 40
1.0
176
     1
 90
        1
176
     1
 90
        6
176
     1
 90
        2
176
     1
 62
     7
176
     1
 90
        3
176
     1
 90
        0
176
     1
 90
        0
176
     1
290
     0
176
     1
 90
       13
176
     1
 40
0.0
176
     1
 90
        0
176
     1
290
     0
176
     1
290
     1
176
     1
290
     1
176
     1
290
     0
176
     1
290
     0
176
     1
290
     0
176
     1
290
     0
176
     1
290
     0
176
     1
290
     0
176
     1
 90
       50
176
     1
 40
0.0
176
     1
 40
1.0
176
     1
 90
        0
176
     1
 62
    18
420
        0
176
     1
 90
       50
176
     1
 90
        3
176
     1
 62
     5
420
      255
176
     1
290
     0
176
     1
 90
       50
176
     1
 90
       50
176
     1
 90
       50
176
     1
290
     0
176
     1
 90
       50
176
     1
 62
   256
176
     0
 40
1.0
176
     0
 90
        2
176
     1
  1
strokes_ogs.tif
176
     1
290
     0
176
     1
 40
1.0
176
     1
 40
1.0
176
     1
  0
VISUALSTYLE
  5
3E
102
{ACAD_REACTORS
330
29
102
}
330
29
100
AcDbVisualStyle
  2
Shaded
 70
    27
177
     3
291
     0
 70
    58
 90
        2
176
     1
 90
        2
176
     1
 90
        1
176
     1
 90
        2
176
     1
 40
0.6
176
     1
 40
30.0
176
     1
 62
     7
420
 16777215
176
     1
 90
        0
176
     1
 90
        4
176
     1
 62
     7
176
     1
 62
   257
176
     1
 90
        1
176
     1
 90
        1
176
     1
 40
1.0
176
     1
 90
        8
176
     1
 62
   257
176
     1
 40
1.0
176
     1
 90
        1
176
     1
 90
        6
176
     1
 90
        2
176
     1
 62
     8
420
  7895160
176
     1
 90
        3
176
     1
 90
        0
176
     1
 90
        0
176
     1
290
     0
176
     1
 90
        5
176
     1
 40
0.0
176
     1
 90
        0
176
     1
290
     0
176
     1
290
     1
176
     1
290
     1
176
     1
290
     0
176
     1
290
     0
176
     1
290
     0
176
     1
290
     0
176
     1
290
     0
176
     1
290
     0
176
     1
 90
       50
176
     1
 40
0.0
176
     1
 40
1.0
176
     1
 90
        0
176
     1
 62
    18
420
        0
176
     1
 90
       50
176
     1
 90
        3
176
     1
 62
     5
420
      255
176
     1
290
     0
176
     1
 90
       50
176
     1
 90
       50
176
     1
 90
       50
176
     1
290
     0
176
     1
 90
       50
176
     1
 62
   256
176
     0
 40
1.0
176
     0
 90
        2
176
     1
  1
strokes_ogs.tif
176
     1
290
     0
176
     1
 40
1.0
176
     1
 40
1.0
176
     1
  0
VISUALSTYLE
  5
3D
102
{ACAD_REACTORS
330
29
102
}
330
29
100
AcDbVisualStyle
  2
Shaded with edges
 70
    26
177
     3
291
     0
 70
    58
 90
        2
176
     1
 90
        2
176
     1
 90
        1
176
     1
 90
        2
176
     1
 40
0.6
176
     1
 40
30.0
176
     1
 62
     7
420
 16777215
176
     1
 90
        1
176
     1
 90
        2
176
     1
 62
     7
176
     1
 62
   257
176
     1
 90
        2
176
     1
 90
        1
176
     1
 40
1.0
176
     1
 90
        8
176
     1
 62
   257
176
     1
 40
1.0
176
     1
 90
        1
176
     1
 90
        6
176
     1
 90
        2
176
     1
 62
     7
176
     1
 90
        3
176
     1
 90
        0
176
     1
 90
        0
176
     1
290
     0
176
     1
 90
        5
176
     1
 40
0.0
176
     1
 90
        0
176
     1
290
     0
176
     1
290
     1
176
     1
290
     1
176
     1
290
     0
176
     1
290
     0
176
     1
290
     0
176
     1
290
     0
176
     1
290
     0
176
     1
290
     0
176
     1
 90
       50
176
     1
 40
0.0
176
     1
 40
1.0
176
     1
 90
        0
176
     1
 62
    18
420
        0
176
     1
 90
       50
176
     1
 90
        3
176
     1
 62
     5
420
      255
176
     1
290
     0
176
     1
 90
       50
176
     1
 90
       50
176
     1
 90
       50
176
     1
290
     0
176
     1
 90
       50
176
     1
 62
   256
176
     0
 40
1.0
176
     0
 90
        2
176
     1
  1
strokes_ogs.tif
176
     1
290
     0
176
     1
 40
1.0
176
     1
 40
1.0
176
     1
  0
VISUALSTYLE
  5
3A
102
{ACAD_REACTORS
330
29
102
}
330
29
100
AcDbVisualStyle
  2
Shades of Gray
 70
    23
177
     3
291
     0
 70
    58
 90
        2
176
     1
 90
        2
176
     1
 90
        3
176
     1
 90
        0
176
     1
 40
0.6
176
     1
 40
30.0
176
     1
 62
     7
420
 16777215
176
     1
 90
        2
176
     1
 90
        2
176
     1
 62
     7
176
     1
 62
     7
176
     1
 90
        1
176
     1
 90
        1
176
     1
 40
40.0
176
     1
 90
        8
176
     1
 62
     7
176
     1
 40
1.0
176
     1
 90
        1
176
     1
 90
        6
176
     1
 90
        2
176
     1
 62
     7
176
     1
 90
        3
176
     1
 90
        0
176
     1
 90
        0
176
     1
290
     0
176
     1
 90
        1
176
     1
 40
0.0
176
     1
 90
        0
176
     1
290
     0
176
     1
290
     1
176
     1
290
     1
176
     1
290
     0
176
     1
290
     0
176
     1
290
     0
176
     1
290
     0
176
     1
290
     0
176
     1
290
     0
176
     1
 90
       50
176
     1
 40
0.0
176
     1
 40
1.0
176
     1
 90
        0
176
     1
 62
    18
420
        0
176
     1
 90
       50
176
     1
 90
        3
176
     1
 62
     5
420
      255
176
     1
290
     0
176
     1
 90
       50
176
     1
 90
       50
176
     1
 90
       50
176
     1
290
     0
176
     1
 90
       50
176
     1
 62
   256
176
     0
 40
1.0
176
     0
 90
        2
176
     1
  1
strokes_ogs.tif
176
     1
290
     0
176
     1
 40
1.0
176
     1
 40
1.0
176
     1
  0
VISUALSTYLE
  5
3B
102
{ACAD_REACTORS
330
29
102
}
330
29
100
AcDbVisualStyle
  2
Sketchy
 70
    24
177
     3
291
     0
 70
    58
 90
        1
176
     1
 90
        2
176
     1
 90
        2
176
     1
 90
        0
176
     1
 40
0.6
176
     1
 40
30.0
176
     1
 62
     7
420
 16777215
176
     1
 90
        2
176
     1
 90
        2
176
     1
 62
     7
176
     1
 62
     7
176
     1
 90
        1
176
     1
 90
        1
176
     1
 40
40.0
176
     1
 90
       11
176
     1
 62
     7
176
     1
 40
1.0
176
     1
 90
        1
176
     1
 90
        6
176
     1
 90
        2
176
     1
 62
     7
176
     1
 90
        6
176
     1
 90
        0
176
     1
 90
        0
176
     1
290
     0
176
     1
 90
        1
176
     1
 40
0.0
176
     1
 90
        0
176
     1
290
     0
176
     1
290
     1
176
     1
290
     1
176
     1
290
     0
176
     1
290
     0
176
     1
290
     0
176
     1
290
     0
176
     1
290
     0
176
     1
290
     0
176
     1
 90
       50
176
     1
 40
0.0
176
     1
 40
1.0
176
     1
 90
        0
176
     1
 62
    18
420
        0
176
     1
 90
       50
176
     1
 90
        3
176
     1
 62
     5
420
      255
176
     1
290
     0
176
     1
 90
       50
176
     1
 90
       50
176
     1
 90
       50
176
     1
290
     0
176
     1
 90
       50
176
     1
 62
   256
176
     0
 40
1.0
176
     0
 90
        2
176
     1
  1
strokes_ogs.tif
176
     1
290
     0
176
     1
 40
1.0
176
     1
 40
1.0
176
     1
  0
VISUALSTYLE
  5
36
102
{ACAD_REACTORS
330
29
102
}
330
29
100
AcDbVisualStyle
  2
Thicken
 70
    13
177
     3
291
     1
 70
    58
 90
        2
176
     1
 90
        2
176
     1
 90
        0
176
     1
 90
        0
176
     1
 40
0.6
176
     1
 40
30.0
176
     1
 62
     7
420
 16777215
176
     1
 90
        1
176
     1
 90
        4
176
     1
 62
     7
176
     1
 62
   257
176
     1
 90
        1
176
     1
 90
        1
176
     1
 40
1.0
176
     1
 90
       12
176
     1
 62
     7
176
     1
 40
1.0
176
     1
 90
        1
176
     1
 90
        6
176
     1
 90
        2
176
     1
 62
     7
176
     1
 90
        5
176
     1
 90
        0
176
     1
 90
        0
176
     1
290
     0
176
     1
 90
        1
176
     1
 40
0.0
176
     1
 90
        0
176
     1
290
     0
176
     1
290
     1
176
     1
290
     1
176
     1
290
     0
176
     1
290
     0
176
     1
290
     0
176
     1
290
     0
176
     1
290
     0
176
     1
290
     0
176
     1
 90
       50
176
     1
 40
0.0
176
     1
 40
1.0
176
     1
 90
        0
176
     1
 62
    18
420
        0
176
     1
 90
       50
176
     1
 90
        3
176
     1
 62
     5
420
      255
176
     1
290
     0
176
     1
 90
       50
176
     1
 90
       50
176
     1
 90
       50
176
     1
290
     0
176
     1
 90
       50
176
     1
 62
   256
176
     0
 40
1.0
176
     0
 90
        2
176
     1
  1
strokes_ogs.tif
176
     1
290
     0
176
     1
 40
1.0
176
     1
 40
1.0
176
     1
  0
VISUALSTYLE
  5
30
102
{ACAD_REACTORS
330
29
102
}
330
29
100
AcDbVisualStyle
  2
Wireframe
 70
     5
177
     3
291
     0
 70
    58
 90
        0
176
     1
 90
        2
176
     1
 90
        0
176
     1
 90
        0
176
     1
 40
0.6
176
     1
 40
30.0
176
     1
 62
     7
420
 16777215
176
     1
 90
        1
176
     1
 90
        4
176
     1
 62
     7
176
     1
 62
   257
176
     1
 90
        1
176
     1
 90
        1
176
     1
 40
1.0
176
     1
 90
        0
176
     1
 62
   257
176
     1
 40
1.0
176
     1
 90
        1
176
     1
 90
        6
176
     1
 90
        2
176
     1
 62
     7
176
     1
 90
        3
176
     1
 90
        0
176
     1
 90
        0
176
     1
290
     0
176
     1
 90
        1
176
     1
 40
0.0
176
     1
 90
        0
176
     1
290
     0
176
     1
290
     1
176
     1
290
     1
176
     1
290
     0
176
     1
290
     0
176
     1
290
     0
176
     1
290
     0
176
     1
290
     0
176
     1
290
     0
176
     1
 90
       50
176
     1
 40
0.0
176
     1
 40
1.0
176
     1
 90
        0
176
     1
 62
    18
420
        0
176
     1
 90
       50
176
     1
 90
        3
176
     1
 62
     5
420
      255
176
     1
290
     0
176
     1
 90
       50
176
     1
 90
       50
176
     1
 90
       50
176
     1
290
     0
176
     1
 90
       50
176
     1
 62
   256
176
     0
 40
1.0
176
     0
 90
        2
176
     1
  1
strokes_ogs.tif
176
     1
290
     0
176
     1
 40
1.0
176
     1
 40
1.0
176
     1
  0
VISUALSTYLE
  5
3C
102
{ACAD_REACTORS
330
29
102
}
330
29
100
AcDbVisualStyle
  2
X-Ray
 70
    25
177
     3
291
     0
 70
    58
 90
        2
176
     1
 90
        2
176
     1
 90
        1
176
     1
 90
        1
176
     1
 40
0.5
176
     1
 40
30.0
176
     1
 62
     7
420
 16777215
176
     1
 90
        1
176
     1
 90
        0
176
     1
 62
     7
176
     1
 62
   257
176
     1
 90
        1
176
     1
 90
        1
176
     1
 40
1.0
176
     1
 90
        8
176
     1
 62
     7
176
     1
 40
1.0
176
     1
 90
        1
176
     1
 90
        6
176
     1
 90
        2
176
     1
 62
     7
176
     1
 90
        3
176
     1
 90
        0
176
     1
 90
        0
176
     1
290
     0
176
     1
 90
       13
176
     1
 40
0.0
176
     1
 90
        0
176
     1
290
     0
176
     1
290
     1
176
     1
290
     1
176
     1
290
     0
176
     1
290
     0
176
     1
290
     0
176
     1
290
     0
176
     1
290
     0
176
     1
290
     0
176
     1
 90
       50
176
     1
 40
0.0
176
     1
 40
1.0
176
     1
 90
        0
176
     1
 62
    18
420
        0
176
     1
 90
       50
176
     1
 90
        3
176
     1
 62
     5
420
      255
176
     1
290
     0
176
     1
 90
       50
176
     1
 90
       50
176
     1
 90
       50
176
     1
290
     0
176
     1
 90
       50
176
     1
 62
   256
176
     0
 40
1.0
176
     0
 90
        2
176
     1
  1
strokes_ogs.tif
176
     1
290
     0
176
     1
 40
1.0
176
     1
 40
1.0
176
     1
  0
DICTIONARYVAR
  5
128
102
{ACAD_REACTORS
330
123
102
}
330
123
100
DictionaryVariables
280
     0
  1
1:1
  0
DICTIONARYVAR
  5
125
102
{ACAD_REACTORS
330
123
102
}
330
123
100
DictionaryVariables
280
     0
  1
STANDARD
  0
DICTIONARYVAR
  5
124
102
{ACAD_REACTORS
330
123
102
}
330
123
100
DictionaryVariables
280
     0
  1
STANDARD
  0
DICTIONARYVAR
  5
126
102
{ACAD_REACTORS
330
123
102
}
330
123
100
DictionaryVariables
280
     0
  1
Imperial24
  0
DICTIONARYVAR
  5
127
102
{ACAD_REACTORS
330
123
102
}
330
123
100
DictionaryVariables
280
     0
  1
Imperial24
  0
DICTIONARY
  5
1A
330
19
100
AcDbDictionary
280
     1
281
     1
  3
BUMPTILE
360
1C
  3
DIFFUSETILE
360
1B
  3
OPACITYTILE
360
1F
  3
REFLECTIONTILE
360
1E
  3
REFRACTIONTILE
360
20
  3
SPECULARTILE
360
1D
  0
DICTIONARY
  5
12
330
11
100
AcDbDictionary
280
     1
281
     1
  3
BUMPTILE
360
14
  3
DIFFUSETILE
360
13
  3
OPACITYTILE
360
17
  3
REFLECTIONTILE
360
16
  3
REFRACTIONTILE
360
18
  3
SPECULARTILE
360
15
  0
DICTIONARY
  5
22
330
21
100
AcDbDictionary
280
     1
281
     1
  3
BUMPTILE
360
24
  3
DIFFUSETILE
360
23
  3
OPACITYTILE
360
27
  3
REFLECTIONTILE
360
26
  3
REFRACTIONTILE
360
28
  3
SPECULARTILE
360
25
  0
DICTIONARY
  5
129
330
65
100
AcDbDictionary
280
     1
281
     1
  3
ACAD_ROUNDTRIP_2008_TABLESTYLE_CELLSTYLEMAP
360
12A
  0
XRECORD
  5
1C
102
{ACAD_REACTORS
330
1A
102
}
330
1A
100
AcDbXrecord
280
     1
270
     1
271
     1
  0
XRECORD
  5
1B
102
{ACAD_REACTORS
330
1A
102
}
330
1A
100
AcDbXrecord
280
     1
270
     1
271
     1
  0
XRECORD
  5
1F
102
{ACAD_REACTORS
330
1A
102
}
330
1A
100
AcDbXrecord
280
     1
270
     1
271
     1
  0
XRECORD
  5
1E
102
{ACAD_REACTORS
330
1A
102
}
330
1A
100
AcDbXrecord
280
     1
270
     1
271
     1
  0
XRECORD
  5
20
102
{ACAD_REACTORS
330
1A
102
}
330
1A
100
AcDbXrecord
280
     1
270
     1
271
     1
  0
XRECORD
  5
1D
102
{ACAD_REACTORS
330
1A
102
}
330
1A
100
AcDbXrecord
280
     1
270
     1
271
     1
  0
XRECORD
  5
14
102
{ACAD_REACTORS
330
12
102
}
330
12
100
AcDbXrecord
280
     1
270
     1
271
     1
  0
XRECORD
  5
13
102
{ACAD_REACTORS
330
12
102
}
330
12
100
AcDbXrecord
280
     1
270
     1
271
     1
  0
XRECORD
  5
17
102
{ACAD_REACTORS
330
12
102
}
330
12
100
AcDbXrecord
280
     1
270
     1
271
     1
  0
XRECORD
  5
16
102
{ACAD_REACTORS
330
12
102
}
330
12
100
AcDbXrecord
280
     1
270
     1
271
     1
  0
XRECORD
  5
18
102
{ACAD_REACTORS
330
12
102
}
330
12
100
AcDbXrecord
280
     1
270
     1
271
     1
  0
XRECORD
  5
15
102
{ACAD_REACTORS
330
12
102
}
330
12
100
AcDbXrecord
280
     1
270
     1
271
     1
  0
XRECORD
  5
24
102
{ACAD_REACTORS
330
22
102
}
330
22
100
AcDbXrecord
280
     1
270
     1
271
     1
  0
XRECORD
  5
23
102
{ACAD_REACTORS
330
22
102
}
330
22
100
AcDbXrecord
280
     1
270
     1
271
     1
  0
XRECORD
  5
27
102
{ACAD_REACTORS
330
22
102
}
330
22
100
AcDbXrecord
280
     1
270
     1
271
     1
  0
XRECORD
  5
26
102
{ACAD_REACTORS
330
22
102
}
330
22
100
AcDbXrecord
280
     1
270
     1
271
     1
  0
XRECORD
  5
28
102
{ACAD_REACTORS
330
22
102
}
330
22
100
AcDbXrecord
280
     1
270
     1
271
     1
  0
XRECORD
  5
25
102
{ACAD_REACTORS
330
22
102
}
330
22
100
AcDbXrecord
280
     1
270
     1
271
     1
  0
CELLSTYLEMAP
  5
12A
102
{ACAD_REACTORS
330
129
102
}
330
129
100
AcDbCellStyleMap
 90
        3
300
CELLSTYLE
  1
TABLEFORMAT_BEGIN
 90
        5
170
     1
 91
        0
 92
    32768
 62
   257
 93
        1
300
CONTENTFORMAT
  1
CONTENTFORMAT_BEGIN
 90
        0
 91
        0
 92
      512
 93
        0
300

 40
0.0
140
1.0
 94
        5
 62
     0
340
55
144
0.25
309
CONTENTFORMAT_END
171
     0
 94
        0
309
TABLEFORMAT_END
  1
CELLSTYLE_BEGIN
 90
        1
 91
        1
300
_TITLE
309
CELLSTYLE_END
300
CELLSTYLE
  1
TABLEFORMAT_BEGIN
 90
        5
170
     1
 91
        0
 92
        0
 62
   257
 93
        1
300
CONTENTFORMAT
  1
CONTENTFORMAT_BEGIN
 90
        0
 91
        0
 92
      512
 93
        0
300

 40
0.0
140
1.0
 94
        5
 62
     0
340
55
144
0.18
309
CONTENTFORMAT_END
171
     0
 94
        0
309
TABLEFORMAT_END
  1
CELLSTYLE_BEGIN
 90
        2
 91
        1
300
_HEADER
309
CELLSTYLE_END
300
CELLSTYLE
  1
TABLEFORMAT_BEGIN
 90
        5
170
     1
 91
        0
 92
        0
 62
   257
 93
        1
300
CONTENTFORMAT
  1
CONTENTFORMAT_BEGIN
 90
        0
 91
        0
 92
      512
 93
        0
300

 40
0.0
140
1.0
 94
        2
 62
     0
340
55
144
0.18
309
CONTENTFORMAT_END
171
     0
 94
        0
309
TABLEFORMAT_END
  1
CELLSTYLE_BEGIN
 90
        3
 91
        2
300
_DATA
309
CELLSTYLE_END
  0
ENDSEC
  0
EOF
