  0
SECTION
  2
HEADER
  9
$ACADVER
  1
AC1032
  9
$ACADMAINTVER
 90
      228
  9
$DWGCODEPAGE
  3
ANSI_1252
  9
$REQUIREDVERSIONS
160
                 0
  9
$INSBASE
 10
0.0
 20
0.0
 30
0.0
  9
$EXTMIN
 10
1.000000000000000E+20
 20
1.000000000000000E+20
 30
1.000000000000000E+20
  9
$EXTMAX
 10
-1.000000000000000E+20
 20
-1.000000000000000E+20
 30
-1.000000000000000E+20
  9
$LIMMIN
 10
0.0
 20
0.0
  9
$LIMMAX
 10
12.0
 20
9.0
  9
$ORTHOMODE
 70
     0
  9
$REGENMODE
 70
     1
  9
$FILLMODE
 70
     1
  9
$QTEXTMODE
 70
     0
  9
$MIRRTEXT
 70
     0
  9
$LTSCALE
 40
1.0
  9
$ATTMODE
 70
     1
  9
$TEXTSIZE
 40
0.2
  9
$TRACEWID
 40
0.05
  9
$TEXTSTYLE
  7
Standard
  9
$CLAYER
  8
0
  9
$CELTYPE
  6
ByLayer
  9
$CECOLOR
 62
   256
  9
$CELTSCALE
 40
1.0
  9
$DISPSILH
 70
     0
  9
$DIMSCALE
 40
1.0
  9
$DIMASZ
 40
0.18
  9
$DIMEXO
 40
0.0625
  9
$DIMDLI
 40
0.38
  9
$DIMRND
 40
0.0
  9
$DIMDLE
 40
0.0
  9
$DIMEXE
 40
0.18
  9
$DIMTP
 40
0.0
  9
$DIMTM
 40
0.0
  9
$DIMTXT
 40
0.18
  9
$DIMCEN
 40
0.09
  9
$DIMTSZ
 40
0.0
  9
$DIMTOL
 70
     0
  9
$DIMLIM
 70
     0
  9
$DIMTIH
 70
     1
  9
$DIMTOH
 70
     1
  9
$DIMSE1
 70
     0
  9
$DIMSE2
 70
     0
  9
$DIMTAD
 70
     0
  9
$DIMZIN
 70
     0
  9
$DIMBLK
  1

  9
$DIMASO
 70
     1
  9
$DIMSHO
 70
     1
  9
$DIMPOST
  1

  9
$DIMAPOST
  1

  9
$DIMALT
 70
     0
  9
$DIMALTD
 70
     2
  9
$DIMALTF
 40
25.4
  9
$DIMLFAC
 40
1.0
  9
$DIMTOFL
 70
     0
  9
$DIMTVP
 40
0.0
  9
$DIMTIX
 70
     0
  9
$DIMSOXD
 70
     0
  9
$DIMSAH
 70
     0
  9
$DIMBLK1
  1

  9
$DIMBLK2
  1

  9
$DIMSTYLE
  2
Standard
  9
$DIMCLRD
 70
     0
  9
$DIMCLRE
 70
     0
  9
$DIMCLRT
 70
     0
  9
$DIMTFAC
 40
1.0
  9
$DIMGAP
 40
0.09
  9
$DIMJUST
 70
     0
  9
$DIMSD1
 70
     0
  9
$DIMSD2
 70
     0
  9
$DIMTOLJ
 70
     1
  9
$DIMTZIN
 70
     0
  9
$DIMALTZ
 70
     0
  9
$DIMALTTZ
 70
     0
  9
$DIMUPT
 70
     0
  9
$DIMDEC
 70
     4
  9
$DIMTDEC
 70
     4
  9
$DIMALTU
 70
     2
  9
$DIMALTTD
 70
     2
  9
$DIMTXSTY
  7
Standard
  9
$DIMAUNIT
 70
     0
  9
$DIMADEC
 70
     0
  9
$DIMALTRND
 40
0.0
  9
$DIMAZIN
 70
     0
  9
$DIMDSEP
 70
    46
  9
$DIMATFIT
 70
     3
  9
$DIMFRAC
 70
     0
  9
$DIMLDRBLK
  1

  9
$DIMLUNIT
 70
     2
  9
$DIMLWD
 70
    -2
  9
$DIMLWE
 70
    -2
  9
$DIMTMOVE
 70
     0
  9
$DIMFXL
 40
1.0
  9
$DIMFXLON
 70
     0
  9
$DIMJOGANG
 40
0.7853981633974483
  9
$DIMTFILL
 70
     0
  9
$DIMTFILLCLR
 70
     0
  9
$DIMARCSYM
 70
     0
  9
$DIMLTYPE
  6

  9
$DIMLTEX1
  6

  9
$DIMLTEX2
  6

  9
$DIMTXTDIRECTION
 70
     0
  9
$LUNITS
 70
     2
  9
$LUPREC
 70
     4
  9
$SKETCHINC
 40
0.1
  9
$FILLETRAD
 40
0.0
  9
$AUNITS
 70
     0
  9
$AUPREC
 70
     0
  9
$MENU
  1
.
  9
$ELEVATION
 40
0.0
  9
$PELEVATION
 40
0.0
  9
$THICKNESS
 40
0.0
  9
$LIMCHECK
 70
     0
  9
$CHAMFERA
 40
0.0
  9
$CHAMFERB
 40
0.0
  9
$CHAMFERC
 40
0.0
  9
$CHAMFERD
 40
0.0
  9
$SKPOLY
 70
     0
  9
$TDCREATE
 40
2460280.778472223
  9
$TDUCREATE
 40
2460281.111805556
  9
$TDUPDATE
 40
2460280.778472223
  9
$TDUUPDATE
 40
2460281.111805556
  9
$TDINDWG
 40
0.0000115741
  9
$TDUSRTIMER
 40
0.0000115741
  9
$USRTIMER
 70
     1
  9
$ANGBASE
 50
0.0
  9
$ANGDIR
 70
     0
  9
$PDMODE
 70
     0
  9
$PDSIZE
 40
0.0
  9
$PLINEWID
 40
0.0
  9
$SPLFRAME
 70
     0
  9
$SPLINETYPE
 70
     6
  9
$SPLINESEGS
 70
     8
  9
$HANDSEED
  5
A3
  9
$SURFTAB1
 70
     6
  9
$SURFTAB2
 70
     6
  9
$SURFTYPE
 70
     6
  9
$SURFU
 70
     6
  9
$SURFV
 70
     6
  9
$UCSBASE
  2

  9
$UCSNAME
  2

  9
$UCSORG
 10
0.0
 20
0.0
 30
0.0
  9
$UCSXDIR
 10
1.0
 20
0.0
 30
0.0
  9
$UCSYDIR
 10
0.0
 20
1.0
 30
0.0
  9
$UCSORTHOREF
  2

  9
$UCSORTHOVIEW
 70
     0
  9
$UCSORGTOP
 10
0.0
 20
0.0
 30
0.0
  9
$UCSORGBOTTOM
 10
0.0
 20
0.0
 30
0.0
  9
$UCSORGLEFT
 10
0.0
 20
0.0
 30
0.0
  9
$UCSORGRIGHT
 10
0.0
 20
0.0
 30
0.0
  9
$UCSORGFRONT
 10
0.0
 20
0.0
 30
0.0
  9
$UCSORGBACK
 10
0.0
 20
0.0
 30
0.0
  9
$PUCSBASE
  2

  9
$PUCSNAME
  2

  9
$PUCSORG
 10
0.0
 20
0.0
 30
0.0
  9
$PUCSXDIR
 10
1.0
 20
0.0
 30
0.0
  9
$PUCSYDIR
 10
0.0
 20
1.0
 30
0.0
  9
$PUCSORTHOREF
  2

  9
$PUCSORTHOVIEW
 70
     0
  9
$PUCSORGTOP
 10
0.0
 20
0.0
 30
0.0
  9
$PUCSORGBOTTOM
 10
0.0
 20
0.0
 30
0.0
  9
$PUCSORGLEFT
 10
0.0
 20
0.0
 30
0.0
  9
$PUCSORGRIGHT
 10
0.0
 20
0.0
 30
0.0
  9
$PUCSORGFRONT
 10
0.0
 20
0.0
 30
0.0
  9
$PUCSORGBACK
 10
0.0
 20
0.0
 30
0.0
  9
$USERI1
 70
     0
  9
$USERI2
 70
     0
  9
$USERI3
 70
     0
  9
$USERI4
 70
     0
  9
$USERI5
 70
     0
  9
$USERR1
 40
0.0
  9
$USERR2
 40
0.0
  9
$USERR3
 40
0.0
  9
$USERR4
 40
0.0
  9
$USERR5
 40
0.0
  9
$WORLDVIEW
 70
     1
  9
$SHADEDGE
 70
     3
  9
$SHADEDIF
 70
    70
  9
$TILEMODE
 70
     1
  9
$MAXACTVP
 70
    64
  9
$PINSBASE
 10
0.0
 20
0.0
 30
0.0
  9
$PLIMCHECK
 70
     0
  9
$PEXTMIN
 10
1.000000000000000E+20
 20
1.000000000000000E+20
 30
1.000000000000000E+20
  9
$PEXTMAX
 10
-1.000000000000000E+20
 20
-1.000000000000000E+20
 30
-1.000000000000000E+20
  9
$PLIMMIN
 10
0.0
 20
0.0
  9
$PLIMMAX
 10
12.0
 20
9.0
  9
$UNITMODE
 70
     0
  9
$VISRETAIN
 70
     1
  9
$PLINEGEN
 70
     0
  9
$PSLTSCALE
 70
     1
  9
$TREEDEPTH
 70
  3020
  9
$CMLSTYLE
  2
Standard
  9
$CMLJUST
 70
     0
  9
$CMLSCALE
 40
1.0
  9
$PROXYGRAPHICS
 70
     1
  9
$MEASUREMENT
 70
     0
  9
$CELWEIGHT
370
    -1
  9
$ENDCAPS
280
     0
  9
$JOINSTYLE
280
     0
  9
$LWDISPLAY
290
     1
  9
$INSUNITS
 70
     1
  9
$HYPERLINKBASE
  1

  9
$STYLESHEET
  1

  9
$XEDIT
290
     1
  9
$CEPSNTYPE
380
     0
  9
$PSTYLEMODE
290
     1
  9
$FINGERPRINTGUID
  2
{92EAF205-CDBE-364D-980C-B74DD41E5BCD}
  9
$VERSIONGUID
  2
{00B0C497-8DA0-AF42-82D2-E33D2CD20D9A}
  9
$EXTNAMES
290
     1
  9
$PSVPSCALE
 40
0.0
  9
$OLESTARTUP
290
     0
  9
$SORTENTS
280
   127
  9
$INDEXCTL
280
     0
  9
$HIDETEXT
280
     1
  9
$XCLIPFRAME
280
     2
  9
$HALOGAP
280
     0
  9
$OBSCOLOR
 70
   257
  9
$OBSLTYPE
280
     0
  9
$INTERSECTIONDISPLAY
280
     0
  9
$INTERSECTIONCOLOR
 70
   257
  9
$DIMASSOC
280
     2
  9
$PROJECTNAME
  1

  9
$CAMERADISPLAY
290
     0
  9
$LENSLENGTH
 40
50.0
  9
$CAMERAHEIGHT
 40
0.0
  9
$STEPSPERSEC
 40
2.0
  9
$STEPSIZE
 40
6.0
  9
$3DDWFPREC
 40
2.0
  9
$PSOLWIDTH
 40
0.25
  9
$PSOLHEIGHT
 40
4.0
  9
$LOFTANG1
 40
1.570796326794896
  9
$LOFTANG2
 40
1.570796326794896
  9
$LOFTMAG1
 40
0.0
  9
$LOFTMAG2
 40
0.0
  9
$LOFTPARAM
 70
     7
  9
$LOFTNORMALS
280
     1
  9
$LATITUDE
 40
37.795
  9
$LONGITUDE
 40
-122.394
  9
$NORTHDIRECTION
 40
0.0
  9
$TIMEZONE
 70
 -8000
  9
$LIGHTGLYPHDISPLAY
280
     1
  9
$TILEMODELIGHTSYNCH
280
     1
  9
$CMATERIAL
347
11
  9
$SOLIDHIST
280
     0
  9
$SHOWHIST
280
     1
  9
$DWFFRAME
280
     2
  9
$DGNFRAME
280
     0
  9
$REALWORLDSCALE
290
     1
  9
$INTERFERECOLOR
 62
     1
  9
$INTERFEREOBJVS
345
33
  9
$INTERFEREVPVS
346
30
  9
$CSHADOW
280
     0
  9
$SHADOWPLANELOCATION
 40
0.0
  0
ENDSEC
  0
SECTION
  2
CLASSES
  0
CLASS
  1
ACDBDICTIONARYWDFLT
  2
AcDbDictionaryWithDefault
  3
ObjectDBX Classes
 90
        0
 91
        1
280
     0
281
     0
  0
CLASS
  1
MATERIAL
  2
AcDbMaterial
  3
ObjectDBX Classes
 90
     1153
 91
        3
280
     0
281
     0
  0
CLASS
  1
VISUALSTYLE
  2
AcDbVisualStyle
  3
ObjectDBX Classes
 90
     4095
 91
       24
280
     0
281
     0
  0
CLASS
  1
SCALE
  2
AcDbScale
  3
ObjectDBX Classes
 90
     1153
 91
       17
280
     0
281
     0
  0
CLASS
  1
TABLESTYLE
  2
AcDbTableStyle
  3
ObjectDBX Classes
 90
     4095
 91
        1
280
     0
281
     0
  0
CLASS
  1
MLEADERSTYLE
  2
AcDbMLeaderStyle
  3
ACDB_MLEADERSTYLE_CLASS
 90
     4095
 91
        1
280
     0
281
     0
  0
CLASS
  1
ACDBSECTIONVIEWSTYLE
  2
AcDbSectionViewStyle
  3
ObjectDBX Classes
 90
     1025
 91
        1
280
     0
281
     0
  0
CLASS
  1
ACDBDETAILVIEWSTYLE
  2
AcDbDetailViewStyle
  3
ObjectDBX Classes
 90
     1025
 91
        1
280
     0
281
     0
  0
CLASS
  1
DICTIONARYVAR
  2
AcDbDictionaryVar
  3
ObjectDBX Classes
 90
        0
 91
        5
280
     0
281
     0
  0
CLASS
  1
CELLSTYLEMAP
  2
AcDbCellStyleMap
  3
ObjectDBX Classes
 90
     1152
 91
        1
280
     0
281
     0
  0
ENDSEC
  0
SECTION
  2
TABLES
  0
TABLE
  2
VPORT
  5
8
330
0
100
AcDbSymbolTable
 70
     1
  0
VPORT
  5
57
330
8
100
AcDbSymbolTableRecord
100
AcDbViewportTableRecord
  2
*Active
 70
     0
 10
0.0
 20
0.0
 11
1.0
 21
1.0
 12
0.0
 22
0.0
 13
0.0
 23
0.0
 14
1.0
 24
1.0
 15
0.0
 25
0.0
 16
0.0
 26
0.0
 36
1.0
 17
6.499999999999993
 27
-3.0
 37
0.0
 40
5.099999999999999
 41
1.000000000000002
 42
50.0
 43
0.0
 44
0.0
 50
0.0
 51
0.0
 71
     0
 72
   100
 73
     1
 74
     1
 75
     0
 76
     0
 77
     0
 78
     0
281
     0
 65
     1
110
0.0
120
0.0
130
0.0
111
1.0
121
0.0
131
0.0
112
0.0
122
1.0
132
0.0
 79
     0
146
0.0
 60
     3
 61
     5
292
     1
282
     1
141
0.0
142
0.0
 63
   250
421
  3355443
  0
ENDTAB
  0
TABLE
  2
LTYPE
  5
5
330
0
100
AcDbSymbolTable
 70
     1
  0
LTYPE
  5
5B
330
5
100
AcDbSymbolTableRecord
100
AcDbLinetypeTableRecord
  2
ByBlock
 70
     0
  3

 72
    65
 73
     0
 40
0.0
  0
LTYPE
  5
5C
330
5
100
AcDbSymbolTableRecord
100
AcDbLinetypeTableRecord
  2
ByLayer
 70
     0
  3

 72
    65
 73
     0
 40
0.0
  0
LTYPE
  5
5D
330
5
100
AcDbSymbolTableRecord
100
AcDbLinetypeTableRecord
  2
Continuous
 70
     0
  3
Solid line
 72
    65
 73
     0
 40
0.0
  0
ENDTAB
  0
TABLE
  2
LAYER
  5
2
330
0
100
AcDbSymbolTable
 70
     3
  0
LAYER
  5
54
330
2
100
AcDbSymbolTableRecord
100
AcDbLayerTableRecord
  2
0
 70
     0
 62
     7
  6
Continuous
370
    -3
390
F
347
21
348
0
  0
LAYER
  5
78
330
2
100
AcDbSymbolTableRecord
100
AcDbLayerTableRecord
  2
Layer 1
 70
     0
 62
     7
  6
Continuous
370
     0
390
F
347
21
348
0
  0
LAYER
  5
99
330
2
100
AcDbSymbolTableRecord
100
AcDbLayerTableRecord
  2
guides
 70
     1
 62
     7
  6
Continuous
370
     0
390
F
347
21
348
0
  0
ENDTAB
  0
TABLE
  2
STYLE
  5
3
330
0
100
AcDbSymbolTable
 70
     2
  0
STYLE
  5
55
330
3
100
AcDbSymbolTableRecord
100
AcDbTextStyleTableRecord
  2
Standard
 70
     0
 40
0.0
 41
1.0
 50
0.0
 71
     0
 42
0.2
  3
txt
  4

  0
STYLE
  5
5A
330
3
100
AcDbSymbolTableRecord
100
AcDbTextStyleTableRecord
  2
Annotative
 70
     0
 40
0.0
 41
1.0
 50
0.0
 71
     0
 42
0.2
  3
txt
  4

1001
AcadAnnotative
1000
AnnotativeData
1002
{
1070
     1
1070
     1
1002
}
  0
ENDTAB
  0
TABLE
  2
VIEW
  5
6
330
0
100
AcDbSymbolTable
 70
     0
  0
ENDTAB
  0
TABLE
  2
UCS
  5
7
330
0
100
AcDbSymbolTable
 70
     0
  0
ENDTAB
  0
TABLE
  2
APPID
  5
9
330
0
100
AcDbSymbolTable
 70
     2
  0
APPID
  5
56
330
9
100
AcDbSymbolTableRecord
100
AcDbRegAppTableRecord
  2
ACAD
 70
     0
  0
APPID
  5
5E
330
9
100
AcDbSymbolTableRecord
100
AcDbRegAppTableRecord
  2
AcadAnnotative
 70
     0
  0
ENDTAB
  0
TABLE
  2
DIMSTYLE
  5
A
330
0
100
AcDbSymbolTable
 70
     2
100
AcDbDimStyleTable
 71
     0
  0
DIMSTYLE
105
58
330
A
100
AcDbSymbolTableRecord
100
AcDbDimStyleTableRecord
  2
Standard
 70
     0
340
55
  0
DIMSTYLE
105
59
330
A
100
AcDbSymbolTableRecord
100
AcDbDimStyleTableRecord
  2
Annotative
 70
     0
340
55
1001
AcadAnnotative
1000
AnnotativeData
1002
{
1070
     1
1070
     1
1002
}
  0
ENDTAB
  0
TABLE
  2
BLOCK_RECORD
  5
1
330
0
100
AcDbSymbolTable
 70
     3
  0
BLOCK_RECORD
  5
70
330
1
100
AcDbSymbolTableRecord
100
AcDbBlockTableRecord
  2
*Model_Space
340
73
 70
     0
280
     1
281
     0
  0
BLOCK_RECORD
  5
6C
330
1
100
AcDbSymbolTableRecord
100
AcDbBlockTableRecord
  2
*Paper_Space
340
6F
 70
     0
280
     1
281
     0
  0
BLOCK_RECORD
  5
74
330
1
100
AcDbSymbolTableRecord
100
AcDbBlockTableRecord
  2
*Paper_Space0
340
77
 70
     0
280
     1
281
     0
  0
BLOCK_RECORD
  5
80
330
1
100
AcDbSymbolTableRecord
100
AcDbBlockTableRecord
  2
Block_0
340
0
102
{BLKREFS
331
81
102
}
 70
     0
280
     1
281
     0
  0
BLOCK_RECORD
  5
8D
330
1
100
AcDbSymbolTableRecord
100
AcDbBlockTableRecord
  2
Block_1
340
0
102
{BLKREFS
331
8E
102
}
 70
     0
280
     1
281
     0
  0
ENDTAB
  0
ENDSEC
  0
SECTION
  2
BLOCKS
  0
BLOCK
  5
71
330
70
100
AcDbEntity
  8
0
100
AcDbBlockBegin
  2
*Model_Space
 70
     0
 10
0.0
 20
0.0
 30
0.0
  3
*Model_Space
  1

  0
ENDBLK
  5
72
330
70
100
AcDbEntity
  8
0
100
AcDbBlockEnd
  0
BLOCK
  5
6D
330
6C
100
AcDbEntity
 67
     1
  8
0
100
AcDbBlockBegin
  2
*Paper_Space
 70
     0
 10
0.0
 20
0.0
 30
0.0
  3
*Paper_Space
  1

  0
ENDBLK
  5
6E
330
6C
100
AcDbEntity
 67
     1
  8
0
100
AcDbBlockEnd
  0
BLOCK
  5
75
330
74
100
AcDbEntity
 67
     1
  8
0
100
AcDbBlockBegin
  2
*Paper_Space0
 70
     0
 10
0.0
 20
0.0
 30
0.0
  3
*Paper_Space0
  1

  0
ENDBLK
  5
76
330
74
100
AcDbEntity
 67
     1
  8
0
100
AcDbBlockEnd
  0
BLOCK
  5
82
330
80
100
AcDbEntity
  8
0
100
AcDbBlockBegin
  2
Block_0
 70
     0
 10
0.0
 20
0.0
 30
0.0
  3
Block_0
  1

  0
SPLINE
  5
84
330
80
100
AcDbEntity
  8
Layer 1
100
AcDbSpline
210
0.0
220
0.0
230
1.0
 70
     9
 71
     3
 72
   113
 73
   109
 74
     0
 42
0.0000000001
 43
0.0000000001
 40
0.0
 40
0.0
 40
0.0
 40
0.0
 40
1.0
 40
1.0
 40
1.0
 40
2.0
 40
2.0
 40
2.0
 40
3.0
 40
3.0
 40
3.0
 40
4.0
 40
4.0
 40
4.0
 40
5.0
 40
5.0
 40
5.0
 40
6.0
 40
6.0
 40
6.0
 40
7.0
 40
7.0
 40
7.0
 40
8.0
 40
8.0
 40
8.0
 40
9.0
 40
9.0
 40
9.0
 40
10.0
 40
10.0
 40
10.0
 40
11.0
 40
11.0
 40
11.0
 40
12.0
 40
12.0
 40
12.0
 40
13.0
 40
13.0
 40
13.0
 40
14.0
 40
14.0
 40
14.0
 40
15.0
 40
15.0
 40
15.0
 40
16.0
 40
16.0
 40
16.0
 40
17.0
 40
17.0
 40
17.0
 40
18.0
 40
18.0
 40
18.0
 40
19.0
 40
19.0
 40
19.0
 40
20.0
 40
20.0
 40
20.0
 40
21.0
 40
21.0
 40
21.0
 40
22.0
 40
22.0
 40
22.0
 40
23.0
 40
23.0
 40
23.0
 40
24.0
 40
24.0
 40
24.0
 40
25.0
 40
25.0
 40
25.0
 40
26.0
 40
26.0
 40
26.0
 40
27.0
 40
27.0
 40
27.0
 40
28.0
 40
28.0
 40
28.0
 40
29.0
 40
29.0
 40
29.0
 40
30.0
 40
30.0
 40
30.0
 40
31.0
 40
31.0
 40
31.0
 40
32.0
 40
32.0
 40
32.0
 40
33.0
 40
33.0
 40
33.0
 40
34.0
 40
34.0
 40
34.0
 40
35.0
 40
35.0
 40
35.0
 40
36.0
 40
36.0
 40
36.0
 40
36.0
 10
4.569980197482638
 20
-1.98257107204861
 30
0.0
 10
4.555304633246527
 20
-1.98257107204861
 30
0.0
 10
4.543470594618055
 20
-1.987060546875
 30
0.0
 10
4.534505208333333
 20
-1.996025933159722
 30
0.0
 10
4.525526258680555
 20
-2.0050048828125
 30
0.0
 10
4.521050347222222
 20
-2.016825358072916
 30
0.0
 10
4.521050347222222
 20
-2.031500922309027
 30
0.0
 10
4.521050347222222
 20
-2.031500922309027
 30
0.0
 10
4.521050347222222
 20
-2.374043782552083
 30
0.0
 10
4.521050347222222
 20
-2.374043782552083
 30
0.0
 10
4.521050347222222
 20
-2.389051649305555
 30
0.0
 10
4.516560872395833
 20
-2.400960286458333
 30
0.0
 10
4.507588704427083
 20
-2.409769694010416
 30
0.0
 10
4.498616536458333
 20
-2.4185791015625
 30
0.0
 10
4.486796061197916
 20
-2.422980414496527
 30
0.0
 10
4.472113715277777
 20
-2.422980414496527
 30
0.0
 10
4.472113715277777
 20
-2.422980414496527
 30
0.0
 10
4.381585015190972
 20
-2.422980414496527
 30
0.0
 10
4.381585015190972
 20
-2.422980414496527
 30
0.0
 10
4.366902669270833
 20
-2.422980414496527
 30
0.0
 10
4.355075412326388
 20
-2.4185791015625
 30
0.0
 10
4.346110026041666
 20
-2.409769694010416
 30
0.0
 10
4.337131076388888
 20
-2.400960286458333
 30
0.0
 10
4.332648383246527
 20
-2.389051649305555
 30
0.0
 10
4.332648383246527
 20
-2.374043782552083
 30
0.0
 10
4.332648383246527
 20
-2.374043782552083
 30
0.0
 10
4.332648383246527
 20
-1.49322509765625
 30
0.0
 10
4.332648383246527
 20
-1.49322509765625
 30
0.0
 10
4.332648383246527
 20
-1.478224012586805
 30
0.0
 10
4.337131076388888
 20
-1.46630859375
 30
0.0
 10
4.346110026041666
 20
-1.457499186197916
 30
0.0
 10
4.355075412326388
 20
-1.448689778645833
 30
0.0
 10
4.366902669270833
 20
-1.444288465711805
 30
0.0
 10
4.381585015190972
 20
-1.444288465711805
 30
0.0
 10
4.381585015190972
 20
-1.444288465711805
 30
0.0
 10
4.472113715277777
 20
-1.444288465711805
 30
0.0
 10
4.472113715277777
 20
-1.444288465711805
 30
0.0
 10
4.486796061197916
 20
-1.444288465711805
 30
0.0
 10
4.498616536458333
 20
-1.448689778645833
 30
0.0
 10
4.507588704427083
 20
-1.457499186197916
 30
0.0
 10
4.516560872395833
 20
-1.46630859375
 30
0.0
 10
4.521050347222222
 20
-1.478224012586805
 30
0.0
 10
4.521050347222222
 20
-1.49322509765625
 30
0.0
 10
4.521050347222222
 20
-1.49322509765625
 30
0.0
 10
4.521050347222222
 20
-1.78731960720486
 30
0.0
 10
4.521050347222222
 20
-1.78731960720486
 30
0.0
 10
4.521050347222222
 20
-1.802001953125
 30
0.0
 10
4.525526258680555
 20
-1.81374782986111
 30
0.0
 10
4.534505208333333
 20
-1.822550455729166
 30
0.0
 10
4.543470594618055
 20
-1.83135986328125
 30
0.0
 10
4.555304633246527
 20
-1.835767957899305
 30
0.0
 10
4.569980197482638
 20
-1.835767957899305
 30
0.0
 10
4.569980197482638
 20
-1.835767957899305
 30
0.0
 10
4.618916829427083
 20
-1.835767957899305
 30
0.0
 10
4.618916829427083
 20
-1.835767957899305
 30
0.0
 10
4.633599175347222
 20
-1.835767957899305
 30
0.0
 10
4.645419650607638
 20
-1.83135986328125
 30
0.0
 10
4.654391818576388
 20
-1.822550455729166
 30
0.0
 10
4.663363986545138
 20
-1.81374782986111
 30
0.0
 10
4.667853461371527
 20
-1.802001953125
 30
0.0
 10
4.667853461371527
 20
-1.78731960720486
 30
0.0
 10
4.667853461371527
 20
-1.78731960720486
 30
0.0
 10
4.667853461371527
 20
-1.49322509765625
 30
0.0
 10
4.667853461371527
 20
-1.49322509765625
 30
0.0
 10
4.667853461371527
 20
-1.478224012586805
 30
0.0
 10
4.67232937282986
 20
-1.46630859375
 30
0.0
 10
4.681308322482638
 20
-1.457499186197916
 30
0.0
 10
4.690280490451388
 20
-1.448689778645833
 30
0.0
 10
4.702107747395833
 20
-1.444288465711805
 30
0.0
 10
4.716783311631943
 20
-1.444288465711805
 30
0.0
 10
4.716783311631943
 20
-1.444288465711805
 30
0.0
 10
4.80731201171875
 20
-1.444288465711805
 30
0.0
 10
4.80731201171875
 20
-1.444288465711805
 30
0.0
 10
4.821994357638888
 20
-1.444288465711805
 30
0.0
 10
4.833814832899305
 20
-1.448689778645833
 30
0.0
 10
4.842793782552083
 20
-1.457499186197916
 30
0.0
 10
4.851759168836805
 20
-1.46630859375
 30
0.0
 10
4.856248643663193
 20
-1.478224012586805
 30
0.0
 10
4.856248643663193
 20
-1.49322509765625
 30
0.0
 10
4.856248643663193
 20
-1.49322509765625
 30
0.0
 10
4.856248643663193
 20
-2.374043782552083
 30
0.0
 10
4.856248643663193
 20
-2.374043782552083
 30
0.0
 10
4.856248643663193
 20
-2.391011555989583
 30
0.0
 10
4.851759168836805
 20
-2.403408474392361
 30
0.0
 10
4.842793782552083
 20
-2.411234537760416
 30
0.0
 10
4.833814832899305
 20
-2.4190673828125
 30
0.0
 10
4.821994357638888
 20
-2.422980414496527
 30
0.0
 10
4.80731201171875
 20
-2.422980414496527
 30
0.0
 10
4.80731201171875
 20
-2.422980414496527
 30
0.0
 10
4.716783311631943
 20
-2.422980414496527
 30
0.0
 10
4.716783311631943
 20
-2.422980414496527
 30
0.0
 10
4.702107747395833
 20
-2.422980414496527
 30
0.0
 10
4.690280490451388
 20
-2.4185791015625
 30
0.0
 10
4.681308322482638
 20
-2.409769694010416
 30
0.0
 10
4.67232937282986
 20
-2.400960286458333
 30
0.0
 10
4.667853461371527
 20
-2.389051649305555
 30
0.0
 10
4.667853461371527
 20
-2.374043782552083
 30
0.0
 10
4.667853461371527
 20
-2.374043782552083
 30
0.0
 10
4.667853461371527
 20
-2.031500922309027
 30
0.0
 10
4.667853461371527
 20
-2.031500922309027
 30
0.0
 10
4.667853461371527
 20
-2.016825358072916
 30
0.0
 10
4.663363986545138
 20
-2.0050048828125
 30
0.0
 10
4.654391818576388
 20
-1.996025933159722
 30
0.0
 10
4.645419650607638
 20
-1.987060546875
 30
0.0
 10
4.633599175347222
 20
-1.98257107204861
 30
0.0
 10
4.618916829427083
 20
-1.98257107204861
 30
0.0
 10
4.618916829427083
 20
-1.98257107204861
 30
0.0
 10
4.569980197482638
 20
-1.98257107204861
 30
0.0
 10
4.569980197482638
 20
-1.98257107204861
 30
0.0
  0
SPLINE
  5
85
330
80
100
AcDbEntity
  8
Layer 1
100
AcDbSpline
210
0.0
220
0.0
230
1.0
 70
     9
 71
     3
 72
    59
 73
    55
 74
     0
 42
0.0000000001
 43
0.0000000001
 40
0.0
 40
0.0
 40
0.0
 40
0.0
 40
1.0
 40
1.0
 40
1.0
 40
2.0
 40
2.0
 40
2.0
 40
3.0
 40
3.0
 40
3.0
 40
4.0
 40
4.0
 40
4.0
 40
5.0
 40
5.0
 40
5.0
 40
6.0
 40
6.0
 40
6.0
 40
7.0
 40
7.0
 40
7.0
 40
8.0
 40
8.0
 40
8.0
 40
9.0
 40
9.0
 40
9.0
 40
10.0
 40
10.0
 40
10.0
 40
11.0
 40
11.0
 40
11.0
 40
12.0
 40
12.0
 40
12.0
 40
13.0
 40
13.0
 40
13.0
 40
14.0
 40
14.0
 40
14.0
 40
15.0
 40
15.0
 40
15.0
 40
16.0
 40
16.0
 40
16.0
 40
17.0
 40
17.0
 40
17.0
 40
18.0
 40
18.0
 40
18.0
 40
18.0
 10
5.274637858072916
 20
-2.276177300347221
 30
0.0
 10
5.289320203993055
 20
-2.276177300347221
 30
0.0
 10
5.301140679253472
 20
-2.271694607204861
 30
0.0
 10
5.310112847222222
 20
-2.262722439236111
 30
0.0
 10
5.319085015190972
 20
-2.253750271267361
 30
0.0
 10
5.32357449001736
 20
-2.241923014322916
 30
0.0
 10
5.32357449001736
 20
-2.227240668402777
 30
0.0
 10
5.32357449001736
 20
-2.227240668402777
 30
0.0
 10
5.32357449001736
 20
-1.640028211805555
 30
0.0
 10
5.32357449001736
 20
-1.640028211805555
 30
0.0
 10
5.32357449001736
 20
-1.625345865885416
 30
0.0
 10
5.319085015190972
 20
-1.613525390625
 30
0.0
 10
5.310112847222222
 20
-1.604546440972222
 30
0.0
 10
5.301140679253472
 20
-1.5955810546875
 30
0.0
 10
5.289320203993055
 20
-1.59109157986111
 30
0.0
 10
5.274637858072916
 20
-1.59109157986111
 30
0.0
 10
5.274637858072916
 20
-1.59109157986111
 30
0.0
 10
5.274637858072916
 20
-1.444288465711805
 30
0.0
 10
5.274637858072916
 20
-1.444288465711805
 30
0.0
 10
5.274637858072916
 20
-1.444288465711805
 30
0.0
 10
5.372504340277777
 20
-1.444288465711805
 30
0.0
 10
5.372504340277777
 20
-1.444288465711805
 30
0.0
 10
5.394687228732638
 20
-1.444288465711805
 30
0.0
 10
5.414754231770833
 20
-1.447801378038194
 30
0.0
 10
5.432698567708333
 20
-1.454806857638888
 30
0.0
 10
5.450636121961805
 20
-1.461825900607638
 30
0.0
 10
5.466050889756943
 20
-1.471774631076388
 30
0.0
 10
5.47894287109375
 20
-1.484659830729166
 30
0.0
 10
5.4918212890625
 20
-1.497551812065972
 30
0.0
 10
5.50177001953125
 20
-1.51296657986111
 30
0.0
 10
5.5087890625
 20
-1.530904134114583
 30
0.0
 10
5.515801323784722
 20
-1.548848470052083
 30
0.0
 10
5.51931423611111
 20
-1.56890869140625
 30
0.0
 10
5.51931423611111
 20
-1.59109157986111
 30
0.0
 10
5.51931423611111
 20
-1.59109157986111
 30
0.0
 10
5.51931423611111
 20
-2.276177300347221
 30
0.0
 10
5.51931423611111
 20
-2.276177300347221
 30
0.0
 10
5.51931423611111
 20
-2.29803466796875
 30
0.0
 10
5.515801323784722
 20
-2.318013509114583
 30
0.0
 10
5.5087890625
 20
-2.33612060546875
 30
0.0
 10
5.50177001953125
 20
-2.354227701822916
 30
0.0
 10
5.4918212890625
 20
-2.369723849826388
 30
0.0
 10
5.47894287109375
 20
-2.382609049479166
 30
0.0
 10
5.466050889756943
 20
-2.395501030815971
 30
0.0
 10
5.450636121961805
 20
-2.405449761284721
 30
0.0
 10
5.432698567708333
 20
-2.412462022569444
 30
0.0
 10
5.414754231770833
 20
-2.419481065538194
 30
0.0
 10
5.394687228732638
 20
-2.422980414496527
 30
0.0
 10
5.372504340277777
 20
-2.422980414496527
 30
0.0
 10
5.372504340277777
 20
-2.422980414496527
 30
0.0
 10
5.274637858072916
 20
-2.422980414496527
 30
0.0
 10
5.274637858072916
 20
-2.422980414496527
 30
0.0
 10
5.274637858072916
 20
-2.422980414496527
 30
0.0
 10
5.274637858072916
 20
-2.276177300347221
 30
0.0
 10
5.274637858072916
 20
-2.276177300347221
 30
0.0
  0
SPLINE
  5
86
330
80
100
AcDbEntity
  8
Layer 1
100
AcDbSpline
210
0.0
220
0.0
230
1.0
 70
     9
 71
     3
 72
    59
 73
    55
 74
     0
 42
0.0000000001
 43
0.0000000001
 40
0.0
 40
0.0
 40
0.0
 40
0.0
 40
1.0
 40
1.0
 40
1.0
 40
2.0
 40
2.0
 40
2.0
 40
3.0
 40
3.0
 40
3.0
 40
4.0
 40
4.0
 40
4.0
 40
5.0
 40
5.0
 40
5.0
 40
6.0
 40
6.0
 40
6.0
 40
7.0
 40
7.0
 40
7.0
 40
8.0
 40
8.0
 40
8.0
 40
9.0
 40
9.0
 40
9.0
 40
10.0
 40
10.0
 40
10.0
 40
11.0
 40
11.0
 40
11.0
 40
12.0
 40
12.0
 40
12.0
 40
13.0
 40
13.0
 40
13.0
 40
14.0
 40
14.0
 40
14.0
 40
15.0
 40
15.0
 40
15.0
 40
16.0
 40
16.0
 40
16.0
 40
17.0
 40
17.0
 40
17.0
 40
18.0
 40
18.0
 40
18.0
 40
18.0
 10
5.176771375868055
 20
-2.227240668402777
 30
0.0
 10
5.176771375868055
 20
-2.241923014322916
 30
0.0
 10
5.181247287326388
 20
-2.253750271267361
 30
0.0
 10
5.190226236979166
 20
-2.262722439236111
 30
0.0
 10
5.199191623263888
 20
-2.271694607204861
 30
0.0
 10
5.21102566189236
 20
-2.276177300347221
 30
0.0
 10
5.225701226128472
 20
-2.276177300347221
 30
0.0
 10
5.225701226128472
 20
-2.276177300347221
 30
0.0
 10
5.225701226128472
 20
-2.422980414496527
 30
0.0
 10
5.225701226128472
 20
-2.422980414496527
 30
0.0
 10
5.225701226128472
 20
-2.422980414496527
 30
0.0
 10
5.12783474392361
 20
-2.422980414496527
 30
0.0
 10
5.12783474392361
 20
-2.422980414496527
 30
0.0
 10
5.105977376302083
 20
-2.422980414496527
 30
0.0
 10
5.08599853515625
 20
-2.419481065538194
 30
0.0
 10
5.067891438802083
 20
-2.412462022569444
 30
0.0
 10
5.049784342447916
 20
-2.405449761284721
 30
0.0
 10
5.034288194444443
 20
-2.395501030815971
 30
0.0
 10
5.021402994791666
 20
-2.382609049479166
 30
0.0
 10
5.00851101345486
 20
-2.369723849826388
 30
0.0
 10
4.99856228298611
 20
-2.354227701822916
 30
0.0
 10
4.991550021701388
 20
-2.33612060546875
 30
0.0
 10
4.984530978732638
 20
-2.318013509114583
 30
0.0
 10
4.981031629774305
 20
-2.29803466796875
 30
0.0
 10
4.981031629774305
 20
-2.276177300347221
 30
0.0
 10
4.981031629774305
 20
-2.276177300347221
 30
0.0
 10
4.981031629774305
 20
-1.59109157986111
 30
0.0
 10
4.981031629774305
 20
-1.59109157986111
 30
0.0
 10
4.981031629774305
 20
-1.56890869140625
 30
0.0
 10
4.984530978732638
 20
-1.548848470052083
 30
0.0
 10
4.991550021701388
 20
-1.530904134114583
 30
0.0
 10
4.99856228298611
 20
-1.51296657986111
 30
0.0
 10
5.00851101345486
 20
-1.497551812065972
 30
0.0
 10
5.021402994791666
 20
-1.484659830729166
 30
0.0
 10
5.034288194444443
 20
-1.471774631076388
 30
0.0
 10
5.049784342447916
 20
-1.461825900607638
 30
0.0
 10
5.067891438802083
 20
-1.454806857638888
 30
0.0
 10
5.08599853515625
 20
-1.447801378038194
 30
0.0
 10
5.105977376302083
 20
-1.444288465711805
 30
0.0
 10
5.12783474392361
 20
-1.444288465711805
 30
0.0
 10
5.12783474392361
 20
-1.444288465711805
 30
0.0
 10
5.225701226128472
 20
-1.444288465711805
 30
0.0
 10
5.225701226128472
 20
-1.444288465711805
 30
0.0
 10
5.225701226128472
 20
-1.444288465711805
 30
0.0
 10
5.225701226128472
 20
-1.59109157986111
 30
0.0
 10
5.225701226128472
 20
-1.59109157986111
 30
0.0
 10
5.21102566189236
 20
-1.59109157986111
 30
0.0
 10
5.199191623263888
 20
-1.5955810546875
 30
0.0
 10
5.190226236979166
 20
-1.604546440972222
 30
0.0
 10
5.181247287326388
 20
-1.613525390625
 30
0.0
 10
5.176771375868055
 20
-1.625345865885416
 30
0.0
 10
5.176771375868055
 20
-1.640028211805555
 30
0.0
 10
5.176771375868055
 20
-1.640028211805555
 30
0.0
 10
5.176771375868055
 20
-2.227240668402777
 30
0.0
 10
5.176771375868055
 20
-2.227240668402777
 30
0.0
  0
SPLINE
  5
87
330
80
100
AcDbEntity
  8
Layer 1
100
AcDbSpline
210
0.0
220
0.0
230
1.0
 70
     9
 71
     3
 72
    59
 73
    55
 74
     0
 42
0.0000000001
 43
0.0000000001
 40
0.0
 40
0.0
 40
0.0
 40
0.0
 40
1.0
 40
1.0
 40
1.0
 40
2.0
 40
2.0
 40
2.0
 40
3.0
 40
3.0
 40
3.0
 40
4.0
 40
4.0
 40
4.0
 40
5.0
 40
5.0
 40
5.0
 40
6.0
 40
6.0
 40
6.0
 40
7.0
 40
7.0
 40
7.0
 40
8.0
 40
8.0
 40
8.0
 40
9.0
 40
9.0
 40
9.0
 40
10.0
 40
10.0
 40
10.0
 40
11.0
 40
11.0
 40
11.0
 40
12.0
 40
12.0
 40
12.0
 40
13.0
 40
13.0
 40
13.0
 40
14.0
 40
14.0
 40
14.0
 40
15.0
 40
15.0
 40
15.0
 40
16.0
 40
16.0
 40
16.0
 40
17.0
 40
17.0
 40
17.0
 40
18.0
 40
18.0
 40
18.0
 40
18.0
 10
5.644097222222222
 20
-1.49322509765625
 30
0.0
 10
5.644097222222222
 20
-1.47854275173611
 30
0.0
 10
5.648579915364583
 20
-1.466722276475694
 30
0.0
 10
5.65755886501736
 20
-1.457743326822916
 30
0.0
 10
5.666524251302083
 20
-1.448777940538194
 30
0.0
 10
5.678351508246527
 20
-1.444288465711805
 30
0.0
 10
5.693033854166666
 20
-1.444288465711805
 30
0.0
 10
5.693033854166666
 20
-1.444288465711805
 30
0.0
 10
5.790900336371527
 20
-1.444288465711805
 30
0.0
 10
5.790900336371527
 20
-1.444288465711805
 30
0.0
 10
5.805582682291666
 20
-1.444288465711805
 30
0.0
 10
5.817403157552083
 20
-1.448777940538194
 30
0.0
 10
5.82638210720486
 20
-1.457743326822916
 30
0.0
 10
5.835347493489583
 20
-1.466722276475694
 30
0.0
 10
5.839836968315972
 20
-1.47854275173611
 30
0.0
 10
5.839836968315972
 20
-1.49322509765625
 30
0.0
 10
5.839836968315972
 20
-1.49322509765625
 30
0.0
 10
5.839836968315972
 20
-2.227240668402777
 30
0.0
 10
5.839836968315972
 20
-2.227240668402777
 30
0.0
 10
5.839836968315972
 20
-2.241923014322916
 30
0.0
 10
5.844319661458333
 20
-2.253750271267361
 30
0.0
 10
5.853291829427083
 20
-2.262722439236111
 30
0.0
 10
5.862263997395833
 20
-2.271694607204861
 30
0.0
 10
5.874091254340277
 20
-2.276177300347221
 30
0.0
 10
5.888773600260416
 20
-2.276177300347221
 30
0.0
 10
5.888773600260416
 20
-2.276177300347221
 30
0.0
 10
6.035576714409722
 20
-2.276177300347221
 30
0.0
 10
6.035576714409722
 20
-2.276177300347221
 30
0.0
 10
6.050577799479166
 20
-2.276177300347221
 30
0.0
 10
6.062486436631943
 20
-2.280666775173611
 30
0.0
 10
6.071295844184027
 20
-2.289632161458333
 30
0.0
 10
6.08010525173611
 20
-2.298611111111111
 30
0.0
 10
6.084506564670138
 20
-2.310431586371527
 30
0.0
 10
6.084506564670138
 20
-2.325113932291666
 30
0.0
 10
6.084506564670138
 20
-2.325113932291666
 30
0.0
 10
6.084506564670138
 20
-2.374043782552083
 30
0.0
 10
6.084506564670138
 20
-2.374043782552083
 30
0.0
 10
6.084506564670138
 20
-2.388726128472221
 30
0.0
 10
6.079935709635416
 20
-2.400553385416666
 30
0.0
 10
6.070807562934027
 20
-2.409525553385416
 30
0.0
 10
6.06167263454861
 20
-2.418497721354166
 30
0.0
 10
6.049763997395833
 20
-2.422980414496527
 30
0.0
 10
6.035088433159722
 20
-2.422980414496527
 30
0.0
 10
6.035088433159722
 20
-2.422980414496527
 30
0.0
 10
5.693033854166666
 20
-2.422980414496527
 30
0.0
 10
5.693033854166666
 20
-2.422980414496527
 30
0.0
 10
5.678351508246527
 20
-2.422980414496527
 30
0.0
 10
5.666524251302083
 20
-2.418497721354166
 30
0.0
 10
5.65755886501736
 20
-2.409525553385416
 30
0.0
 10
5.648579915364583
 20
-2.400553385416666
 30
0.0
 10
5.644097222222222
 20
-2.388726128472221
 30
0.0
 10
5.644097222222222
 20
-2.374043782552083
 30
0.0
 10
5.644097222222222
 20
-2.374043782552083
 30
0.0
 10
5.644097222222222
 20
-1.49322509765625
 30
0.0
 10
5.644097222222222
 20
-1.49322509765625
 30
0.0
  0
SPLINE
  5
88
330
80
100
AcDbEntity
  8
Layer 1
100
AcDbSpline
210
0.0
220
0.0
230
1.0
 70
     9
 71
     3
 72
    59
 73
    55
 74
     0
 42
0.0000000001
 43
0.0000000001
 40
0.0
 40
0.0
 40
0.0
 40
0.0
 40
1.0
 40
1.0
 40
1.0
 40
2.0
 40
2.0
 40
2.0
 40
3.0
 40
3.0
 40
3.0
 40
4.0
 40
4.0
 40
4.0
 40
5.0
 40
5.0
 40
5.0
 40
6.0
 40
6.0
 40
6.0
 40
7.0
 40
7.0
 40
7.0
 40
8.0
 40
8.0
 40
8.0
 40
9.0
 40
9.0
 40
9.0
 40
10.0
 40
10.0
 40
10.0
 40
11.0
 40
11.0
 40
11.0
 40
12.0
 40
12.0
 40
12.0
 40
13.0
 40
13.0
 40
13.0
 40
14.0
 40
14.0
 40
14.0
 40
15.0
 40
15.0
 40
15.0
 40
16.0
 40
16.0
 40
16.0
 40
17.0
 40
17.0
 40
17.0
 40
18.0
 40
18.0
 40
18.0
 40
18.0
 10
6.468641493055555
 20
-2.276177300347221
 30
0.0
 10
6.483323838975693
 20
-2.276177300347221
 30
0.0
 10
6.49514431423611
 20
-2.271769205729166
 30
0.0
 10
6.504123263888888
 20
-2.262966579861111
 30
0.0
 10
6.51308865017361
 20
-2.254157172309027
 30
0.0
 10
6.517578125
 20
-2.24224853515625
 30
0.0
 10
6.517578125
 20
-2.227240668402777
 30
0.0
 10
6.517578125
 20
-2.227240668402777
 30
0.0
 10
6.517578125
 20
-1.640028211805555
 30
0.0
 10
6.517578125
 20
-1.640028211805555
 30
0.0
 10
6.517578125
 20
-1.625345865885416
 30
0.0
 10
6.51308865017361
 20
-1.613525390625
 30
0.0
 10
6.504123263888888
 20
-1.604546440972222
 30
0.0
 10
6.49514431423611
 20
-1.5955810546875
 30
0.0
 10
6.483323838975693
 20
-1.59109157986111
 30
0.0
 10
6.468641493055555
 20
-1.59109157986111
 30
0.0
 10
6.468641493055555
 20
-1.59109157986111
 30
0.0
 10
6.468641493055555
 20
-1.444288465711805
 30
0.0
 10
6.468641493055555
 20
-1.444288465711805
 30
0.0
 10
6.468641493055555
 20
-1.444288465711805
 30
0.0
 10
6.556735568576388
 20
-1.444288465711805
 30
0.0
 10
6.556735568576388
 20
-1.444288465711805
 30
0.0
 10
6.578911675347221
 20
-1.444288465711805
 30
0.0
 10
6.598971896701388
 20
-1.447801378038194
 30
0.0
 10
6.616929796006943
 20
-1.454806857638888
 30
0.0
 10
6.634860568576388
 20
-1.461825900607638
 30
0.0
 10
6.6502685546875
 20
-1.471774631076388
 30
0.0
 10
6.663153754340277
 20
-1.484659830729166
 30
0.0
 10
6.676038953993055
 20
-1.497551812065972
 30
0.0
 10
6.685994466145833
 20
-1.51296657986111
 30
0.0
 10
6.69302029079861
 20
-1.530904134114583
 30
0.0
 10
6.700018988715277
 20
-1.548848470052083
 30
0.0
 10
6.703545464409721
 20
-1.56890869140625
 30
0.0
 10
6.703545464409721
 20
-1.59109157986111
 30
0.0
 10
6.703545464409721
 20
-1.59109157986111
 30
0.0
 10
6.703545464409721
 20
-2.276177300347221
 30
0.0
 10
6.703545464409721
 20
-2.276177300347221
 30
0.0
 10
6.703545464409721
 20
-2.29803466796875
 30
0.0
 10
6.700018988715277
 20
-2.318013509114583
 30
0.0
 10
6.69302029079861
 20
-2.33612060546875
 30
0.0
 10
6.685994466145833
 20
-2.354227701822916
 30
0.0
 10
6.676038953993055
 20
-2.369723849826388
 30
0.0
 10
6.663153754340277
 20
-2.382609049479166
 30
0.0
 10
6.6502685546875
 20
-2.395501030815971
 30
0.0
 10
6.634860568576388
 20
-2.405449761284721
 30
0.0
 10
6.616929796006943
 20
-2.412462022569444
 30
0.0
 10
6.598971896701388
 20
-2.419481065538194
 30
0.0
 10
6.578911675347221
 20
-2.422980414496527
 30
0.0
 10
6.556735568576388
 20
-2.422980414496527
 30
0.0
 10
6.556735568576388
 20
-2.422980414496527
 30
0.0
 10
6.468641493055555
 20
-2.422980414496527
 30
0.0
 10
6.468641493055555
 20
-2.422980414496527
 30
0.0
 10
6.468641493055555
 20
-2.422980414496527
 30
0.0
 10
6.468641493055555
 20
-2.276177300347221
 30
0.0
 10
6.468641493055555
 20
-2.276177300347221
 30
0.0
  0
SPLINE
  5
89
330
80
100
AcDbEntity
  8
Layer 1
100
AcDbSpline
210
0.0
220
0.0
230
1.0
 70
     9
 71
     3
 72
    47
 73
    43
 74
     0
 42
0.0000000001
 43
0.0000000001
 40
0.0
 40
0.0
 40
0.0
 40
0.0
 40
1.0
 40
1.0
 40
1.0
 40
2.0
 40
2.0
 40
2.0
 40
3.0
 40
3.0
 40
3.0
 40
4.0
 40
4.0
 40
4.0
 40
5.0
 40
5.0
 40
5.0
 40
6.0
 40
6.0
 40
6.0
 40
7.0
 40
7.0
 40
7.0
 40
8.0
 40
8.0
 40
8.0
 40
9.0
 40
9.0
 40
9.0
 40
10.0
 40
10.0
 40
10.0
 40
11.0
 40
11.0
 40
11.0
 40
12.0
 40
12.0
 40
12.0
 40
13.0
 40
13.0
 40
13.0
 40
14.0
 40
14.0
 40
14.0
 40
14.0
 10
6.370775010850693
 20
-2.227240668402777
 30
0.0
 10
6.370775010850693
 20
-2.24224853515625
 30
0.0
 10
6.375257703993055
 20
-2.254157172309027
 30
0.0
 10
6.384229871961805
 20
-2.262966579861111
 30
0.0
 10
6.393202039930555
 20
-2.271769205729166
 30
0.0
 10
6.405029296875
 20
-2.276177300347221
 30
0.0
 10
6.419711642795138
 20
-2.276177300347221
 30
0.0
 10
6.419711642795138
 20
-2.276177300347221
 30
0.0
 10
6.419711642795138
 20
-2.422980414496527
 30
0.0
 10
6.419711642795138
 20
-2.422980414496527
 30
0.0
 10
6.419711642795138
 20
-2.422980414496527
 30
0.0
 10
6.233757866753471
 20
-2.422980414496527
 30
0.0
 10
6.233757866753471
 20
-2.422980414496527
 30
0.0
 10
6.219075520833333
 20
-2.422980414496527
 30
0.0
 10
6.207248263888888
 20
-2.418497721354166
 30
0.0
 10
6.198282877604166
 20
-2.409525553385416
 30
0.0
 10
6.189303927951388
 20
-2.400553385416666
 30
0.0
 10
6.184821234809027
 20
-2.388726128472221
 30
0.0
 10
6.184821234809027
 20
-2.374043782552083
 30
0.0
 10
6.184821234809027
 20
-2.374043782552083
 30
0.0
 10
6.184821234809027
 20
-1.49322509765625
 30
0.0
 10
6.184821234809027
 20
-1.49322509765625
 30
0.0
 10
6.184821234809027
 20
-1.47854275173611
 30
0.0
 10
6.189303927951388
 20
-1.466722276475694
 30
0.0
 10
6.198282877604166
 20
-1.457743326822916
 30
0.0
 10
6.207248263888888
 20
-1.448777940538194
 30
0.0
 10
6.219075520833333
 20
-1.444288465711805
 30
0.0
 10
6.233757866753471
 20
-1.444288465711805
 30
0.0
 10
6.233757866753471
 20
-1.444288465711805
 30
0.0
 10
6.419711642795138
 20
-1.444288465711805
 30
0.0
 10
6.419711642795138
 20
-1.444288465711805
 30
0.0
 10
6.419711642795138
 20
-1.444288465711805
 30
0.0
 10
6.419711642795138
 20
-1.59109157986111
 30
0.0
 10
6.419711642795138
 20
-1.59109157986111
 30
0.0
 10
6.405029296875
 20
-1.59109157986111
 30
0.0
 10
6.393202039930555
 20
-1.5955810546875
 30
0.0
 10
6.384229871961805
 20
-1.604546440972222
 30
0.0
 10
6.375257703993055
 20
-1.613525390625
 30
0.0
 10
6.370775010850693
 20
-1.625345865885416
 30
0.0
 10
6.370775010850693
 20
-1.640028211805555
 30
0.0
 10
6.370775010850693
 20
-1.640028211805555
 30
0.0
 10
6.370775010850693
 20
-2.227240668402777
 30
0.0
 10
6.370775010850693
 20
-2.227240668402777
 30
0.0
  0
SPLINE
  5
8A
330
80
100
AcDbEntity
  8
Layer 1
100
AcDbSpline
210
0.0
220
0.0
230
1.0
 70
     9
 71
     3
 72
    77
 73
    73
 74
     0
 42
0.0000000001
 43
0.0000000001
 40
0.0
 40
0.0
 40
0.0
 40
0.0
 40
1.0
 40
1.0
 40
1.0
 40
2.0
 40
2.0
 40
2.0
 40
3.0
 40
3.0
 40
3.0
 40
4.0
 40
4.0
 40
4.0
 40
5.0
 40
5.0
 40
5.0
 40
6.0
 40
6.0
 40
6.0
 40
7.0
 40
7.0
 40
7.0
 40
8.0
 40
8.0
 40
8.0
 40
9.0
 40
9.0
 40
9.0
 40
10.0
 40
10.0
 40
10.0
 40
11.0
 40
11.0
 40
11.0
 40
12.0
 40
12.0
 40
12.0
 40
13.0
 40
13.0
 40
13.0
 40
14.0
 40
14.0
 40
14.0
 40
15.0
 40
15.0
 40
15.0
 40
16.0
 40
16.0
 40
16.0
 40
17.0
 40
17.0
 40
17.0
 40
18.0
 40
18.0
 40
18.0
 40
19.0
 40
19.0
 40
19.0
 40
20.0
 40
20.0
 40
20.0
 40
21.0
 40
21.0
 40
21.0
 40
22.0
 40
22.0
 40
22.0
 40
23.0
 40
23.0
 40
23.0
 40
24.0
 40
24.0
 40
24.0
 40
24.0
 10
7.192884657118055
 20
-1.640028211805555
 30
0.0
 10
7.192884657118055
 20
-1.623067220052083
 30
0.0
 10
7.188395182291666
 20
-1.610663519965277
 30
0.0
 10
7.179429796006943
 20
-1.602837456597222
 30
0.0
 10
7.170450846354166
 20
-1.595004611545138
 30
0.0
 10
7.158623589409721
 20
-1.59109157986111
 30
0.0
 10
7.14394802517361
 20
-1.59109157986111
 30
0.0
 10
7.14394802517361
 20
-1.59109157986111
 30
0.0
 10
7.094523111979166
 20
-1.59109157986111
 30
0.0
 10
7.094523111979166
 20
-1.59109157986111
 30
0.0
 10
7.079847547743055
 20
-1.59109157986111
 30
0.0
 10
7.067925347222221
 20
-1.58660888671875
 30
0.0
 10
7.058797200520833
 20
-1.57763671875
 30
0.0
 10
7.049669053819443
 20
-1.56866455078125
 30
0.0
 10
7.045260959201388
 20
-1.556837293836805
 30
0.0
 10
7.045586480034721
 20
-1.542154947916666
 30
0.0
 10
7.045586480034721
 20
-1.542154947916666
 30
0.0
 10
7.046074761284721
 20
-1.49322509765625
 30
0.0
 10
7.046074761284721
 20
-1.49322509765625
 30
0.0
 10
7.046400282118055
 20
-1.47854275173611
 30
0.0
 10
7.050971137152777
 20
-1.466722276475694
 30
0.0
 10
7.059773763020833
 20
-1.457743326822916
 30
0.0
 10
7.068589952256943
 20
-1.448777940538194
 30
0.0
 10
7.080335828993055
 20
-1.444288465711805
 30
0.0
 10
7.095011393229166
 20
-1.444288465711805
 30
0.0
 10
7.095011393229166
 20
-1.444288465711805
 30
0.0
 10
7.486490885416666
 20
-1.444288465711805
 30
0.0
 10
7.486490885416666
 20
-1.444288465711805
 30
0.0
 10
7.501166449652777
 20
-1.444288465711805
 30
0.0
 10
7.512912326388888
 20
-1.448777940538194
 30
0.0
 10
7.521728515625
 20
-1.457743326822916
 30
0.0
 10
7.530531141493055
 20
-1.466722276475694
 30
0.0
 10
7.535101996527777
 20
-1.47854275173611
 30
0.0
 10
7.53542751736111
 20
-1.49322509765625
 30
0.0
 10
7.53542751736111
 20
-1.49322509765625
 30
0.0
 10
7.53591579861111
 20
-1.542154947916666
 30
0.0
 10
7.53591579861111
 20
-1.542154947916666
 30
0.0
 10
7.536241319444443
 20
-1.556837293836805
 30
0.0
 10
7.531833224826388
 20
-1.56866455078125
 30
0.0
 10
7.522705078125
 20
-1.57763671875
 30
0.0
 10
7.513563368055555
 20
-1.58660888671875
 30
0.0
 10
7.501654730902777
 20
-1.59109157986111
 30
0.0
 10
7.486979166666666
 20
-1.59109157986111
 30
0.0
 10
7.486979166666666
 20
-1.59109157986111
 30
0.0
 10
7.437554253472221
 20
-1.59109157986111
 30
0.0
 10
7.437554253472221
 20
-1.59109157986111
 30
0.0
 10
7.42287868923611
 20
-1.59109157986111
 30
0.0
 10
7.411051432291666
 20
-1.595004611545138
 30
0.0
 10
7.402072482638888
 20
-1.602837456597222
 30
0.0
 10
7.393107096354166
 20
-1.610663519965277
 30
0.0
 10
7.388617621527777
 20
-1.623067220052083
 30
0.0
 10
7.388617621527777
 20
-1.640028211805555
 30
0.0
 10
7.388617621527777
 20
-1.640028211805555
 30
0.0
 10
7.388617621527777
 20
-2.374043782552083
 30
0.0
 10
7.388617621527777
 20
-2.374043782552083
 30
0.0
 10
7.388617621527777
 20
-2.388726128472221
 30
0.0
 10
7.384128146701388
 20
-2.400553385416666
 30
0.0
 10
7.375162760416666
 20
-2.409525553385416
 30
0.0
 10
7.366183810763888
 20
-2.418497721354166
 30
0.0
 10
7.3543701171875
 20
-2.422980414496527
 30
0.0
 10
7.339680989583333
 20
-2.422980414496527
 30
0.0
 10
7.339680989583333
 20
-2.422980414496527
 30
0.0
 10
7.2418212890625
 20
-2.422980414496527
 30
0.0
 10
7.2418212890625
 20
-2.422980414496527
 30
0.0
 10
7.227132161458333
 20
-2.422980414496527
 30
0.0
 10
7.215304904513888
 20
-2.418497721354166
 30
0.0
 10
7.206339518229166
 20
-2.409525553385416
 30
0.0
 10
7.197360568576388
 20
-2.400553385416666
 30
0.0
 10
7.192884657118055
 20
-2.388726128472221
 30
0.0
 10
7.192884657118055
 20
-2.374043782552083
 30
0.0
 10
7.192884657118055
 20
-2.374043782552083
 30
0.0
 10
7.192884657118055
 20
-1.640028211805555
 30
0.0
 10
7.192884657118055
 20
-1.640028211805555
 30
0.0
  0
SPLINE
  5
8B
330
80
100
AcDbEntity
  8
Layer 1
100
AcDbSpline
210
0.0
220
0.0
230
1.0
 70
     9
 71
     3
 72
   113
 73
   109
 74
     0
 42
0.0000000001
 43
0.0000000001
 40
0.0
 40
0.0
 40
0.0
 40
0.0
 40
1.0
 40
1.0
 40
1.0
 40
2.0
 40
2.0
 40
2.0
 40
3.0
 40
3.0
 40
3.0
 40
4.0
 40
4.0
 40
4.0
 40
5.0
 40
5.0
 40
5.0
 40
6.0
 40
6.0
 40
6.0
 40
7.0
 40
7.0
 40
7.0
 40
8.0
 40
8.0
 40
8.0
 40
9.0
 40
9.0
 40
9.0
 40
10.0
 40
10.0
 40
10.0
 40
11.0
 40
11.0
 40
11.0
 40
12.0
 40
12.0
 40
12.0
 40
13.0
 40
13.0
 40
13.0
 40
14.0
 40
14.0
 40
14.0
 40
15.0
 40
15.0
 40
15.0
 40
16.0
 40
16.0
 40
16.0
 40
17.0
 40
17.0
 40
17.0
 40
18.0
 40
18.0
 40
18.0
 40
19.0
 40
19.0
 40
19.0
 40
20.0
 40
20.0
 40
20.0
 40
21.0
 40
21.0
 40
21.0
 40
22.0
 40
22.0
 40
22.0
 40
23.0
 40
23.0
 40
23.0
 40
24.0
 40
24.0
 40
24.0
 40
25.0
 40
25.0
 40
25.0
 40
26.0
 40
26.0
 40
26.0
 40
27.0
 40
27.0
 40
27.0
 40
28.0
 40
28.0
 40
28.0
 40
29.0
 40
29.0
 40
29.0
 40
30.0
 40
30.0
 40
30.0
 40
31.0
 40
31.0
 40
31.0
 40
32.0
 40
32.0
 40
32.0
 40
33.0
 40
33.0
 40
33.0
 40
34.0
 40
34.0
 40
34.0
 40
35.0
 40
35.0
 40
35.0
 40
36.0
 40
36.0
 40
36.0
 40
36.0
 10
7.877970377604166
 20
-1.98257107204861
 30
0.0
 10
7.86328125
 20
-1.98257107204861
 30
0.0
 10
7.851453993055555
 20
-1.987060546875
 30
0.0
 10
7.842488606770833
 20
-1.996025933159722
 30
0.0
 10
7.833509657118055
 20
-2.0050048828125
 30
0.0
 10
7.829033745659721
 20
-2.016825358072916
 30
0.0
 10
7.829033745659721
 20
-2.031500922309027
 30
0.0
 10
7.829033745659721
 20
-2.031500922309027
 30
0.0
 10
7.829033745659721
 20
-2.374043782552083
 30
0.0
 10
7.829033745659721
 20
-2.374043782552083
 30
0.0
 10
7.829033745659721
 20
-2.389051649305555
 30
0.0
 10
7.824544270833333
 20
-2.400960286458333
 30
0.0
 10
7.81557888454861
 20
-2.409769694010416
 30
0.0
 10
7.806599934895833
 20
-2.4185791015625
 30
0.0
 10
7.794772677951388
 20
-2.422980414496527
 30
0.0
 10
7.780097113715277
 20
-2.422980414496527
 30
0.0
 10
7.780097113715277
 20
-2.422980414496527
 30
0.0
 10
7.689561631944443
 20
-2.422980414496527
 30
0.0
 10
7.689561631944443
 20
-2.422980414496527
 30
0.0
 10
7.674886067708333
 20
-2.422980414496527
 30
0.0
 10
7.663058810763888
 20
-2.4185791015625
 30
0.0
 10
7.654093424479166
 20
-2.409769694010416
 30
0.0
 10
7.645114474826388
 20
-2.400960286458333
 30
0.0
 10
7.640638563368055
 20
-2.389051649305555
 30
0.0
 10
7.640638563368055
 20
-2.374043782552083
 30
0.0
 10
7.640638563368055
 20
-2.374043782552083
 30
0.0
 10
7.640638563368055
 20
-1.49322509765625
 30
0.0
 10
7.640638563368055
 20
-1.49322509765625
 30
0.0
 10
7.640638563368055
 20
-1.478224012586805
 30
0.0
 10
7.645114474826388
 20
-1.46630859375
 30
0.0
 10
7.654093424479166
 20
-1.457499186197916
 30
0.0
 10
7.663058810763888
 20
-1.448689778645833
 30
0.0
 10
7.674886067708333
 20
-1.444288465711805
 30
0.0
 10
7.689561631944443
 20
-1.444288465711805
 30
0.0
 10
7.689561631944443
 20
-1.444288465711805
 30
0.0
 10
7.780097113715277
 20
-1.444288465711805
 30
0.0
 10
7.780097113715277
 20
-1.444288465711805
 30
0.0
 10
7.794772677951388
 20
-1.444288465711805
 30
0.0
 10
7.806599934895833
 20
-1.448689778645833
 30
0.0
 10
7.81557888454861
 20
-1.457499186197916
 30
0.0
 10
7.824544270833333
 20
-1.46630859375
 30
0.0
 10
7.829033745659721
 20
-1.478224012586805
 30
0.0
 10
7.829033745659721
 20
-1.49322509765625
 30
0.0
 10
7.829033745659721
 20
-1.49322509765625
 30
0.0
 10
7.829033745659721
 20
-1.78731960720486
 30
0.0
 10
7.829033745659721
 20
-1.78731960720486
 30
0.0
 10
7.829033745659721
 20
-1.802001953125
 30
0.0
 10
7.833509657118055
 20
-1.81374782986111
 30
0.0
 10
7.842488606770833
 20
-1.822550455729166
 30
0.0
 10
7.851453993055555
 20
-1.83135986328125
 30
0.0
 10
7.86328125
 20
-1.835767957899305
 30
0.0
 10
7.877970377604166
 20
-1.835767957899305
 30
0.0
 10
7.877970377604166
 20
-1.835767957899305
 30
0.0
 10
7.92690700954861
 20
-1.835767957899305
 30
0.0
 10
7.92690700954861
 20
-1.835767957899305
 30
0.0
 10
7.941582573784721
 20
-1.835767957899305
 30
0.0
 10
7.95339626736111
 20
-1.83135986328125
 30
0.0
 10
7.962375217013888
 20
-1.822550455729166
 30
0.0
 10
7.97134060329861
 20
-1.81374782986111
 30
0.0
 10
7.975830078125
 20
-1.802001953125
 30
0.0
 10
7.975830078125
 20
-1.78731960720486
 30
0.0
 10
7.975830078125
 20
-1.78731960720486
 30
0.0
 10
7.975830078125
 20
-1.49322509765625
 30
0.0
 10
7.975830078125
 20
-1.49322509765625
 30
0.0
 10
7.975830078125
 20
-1.478224012586805
 30
0.0
 10
7.980319552951388
 20
-1.46630859375
 30
0.0
 10
7.989298502604166
 20
-1.457499186197916
 30
0.0
 10
7.998263888888888
 20
-1.448689778645833
 30
0.0
 10
8.010091145833332
 20
-1.444288465711805
 30
0.0
 10
8.024766710069444
 20
-1.444288465711805
 30
0.0
 10
8.024766710069444
 20
-1.444288465711805
 30
0.0
 10
8.115302191840276
 20
-1.444288465711805
 30
0.0
 10
8.115302191840276
 20
-1.444288465711805
 30
0.0
 10
8.129977756076389
 20
-1.444288465711805
 30
0.0
 10
8.141805013020832
 20
-1.448689778645833
 30
0.0
 10
8.150770399305555
 20
-1.457499186197916
 30
0.0
 10
8.159749348958332
 20
-1.46630859375
 30
0.0
 10
8.164238823784721
 20
-1.478224012586805
 30
0.0
 10
8.164238823784721
 20
-1.49322509765625
 30
0.0
 10
8.164238823784721
 20
-1.49322509765625
 30
0.0
 10
8.164238823784721
 20
-2.374043782552083
 30
0.0
 10
8.164238823784721
 20
-2.374043782552083
 30
0.0
 10
8.164238823784721
 20
-2.391011555989583
 30
0.0
 10
8.159749348958332
 20
-2.403408474392361
 30
0.0
 10
8.150770399305555
 20
-2.411234537760416
 30
0.0
 10
8.141805013020832
 20
-2.4190673828125
 30
0.0
 10
8.129977756076389
 20
-2.422980414496527
 30
0.0
 10
8.115302191840276
 20
-2.422980414496527
 30
0.0
 10
8.115302191840276
 20
-2.422980414496527
 30
0.0
 10
8.024766710069444
 20
-2.422980414496527
 30
0.0
 10
8.024766710069444
 20
-2.422980414496527
 30
0.0
 10
8.010091145833332
 20
-2.422980414496527
 30
0.0
 10
7.998263888888888
 20
-2.4185791015625
 30
0.0
 10
7.989298502604166
 20
-2.409769694010416
 30
0.0
 10
7.980319552951388
 20
-2.400960286458333
 30
0.0
 10
7.975830078125
 20
-2.389051649305555
 30
0.0
 10
7.975830078125
 20
-2.374043782552083
 30
0.0
 10
7.975830078125
 20
-2.374043782552083
 30
0.0
 10
7.975830078125
 20
-2.031500922309027
 30
0.0
 10
7.975830078125
 20
-2.031500922309027
 30
0.0
 10
7.975830078125
 20
-2.016825358072916
 30
0.0
 10
7.97134060329861
 20
-2.0050048828125
 30
0.0
 10
7.962375217013888
 20
-1.996025933159722
 30
0.0
 10
7.95339626736111
 20
-1.987060546875
 30
0.0
 10
7.941582573784721
 20
-1.98257107204861
 30
0.0
 10
7.92690700954861
 20
-1.98257107204861
 30
0.0
 10
7.92690700954861
 20
-1.98257107204861
 30
0.0
 10
7.877970377604166
 20
-1.98257107204861
 30
0.0
 10
7.877970377604166
 20
-1.98257107204861
 30
0.0
  0
SPLINE
  5
8C
330
80
100
AcDbEntity
  8
Layer 1
100
AcDbSpline
210
0.0
220
0.0
230
1.0
 70
     9
 71
     3
 72
   125
 73
   121
 74
     0
 42
0.0000000001
 43
0.0000000001
 40
0.0
 40
0.0
 40
0.0
 40
0.0
 40
1.0
 40
1.0
 40
1.0
 40
2.0
 40
2.0
 40
2.0
 40
3.0
 40
3.0
 40
3.0
 40
4.0
 40
4.0
 40
4.0
 40
5.0
 40
5.0
 40
5.0
 40
6.0
 40
6.0
 40
6.0
 40
7.0
 40
7.0
 40
7.0
 40
8.0
 40
8.0
 40
8.0
 40
9.0
 40
9.0
 40
9.0
 40
10.0
 40
10.0
 40
10.0
 40
11.0
 40
11.0
 40
11.0
 40
12.0
 40
12.0
 40
12.0
 40
13.0
 40
13.0
 40
13.0
 40
14.0
 40
14.0
 40
14.0
 40
15.0
 40
15.0
 40
15.0
 40
16.0
 40
16.0
 40
16.0
 40
17.0
 40
17.0
 40
17.0
 40
18.0
 40
18.0
 40
18.0
 40
19.0
 40
19.0
 40
19.0
 40
20.0
 40
20.0
 40
20.0
 40
21.0
 40
21.0
 40
21.0
 40
22.0
 40
22.0
 40
22.0
 40
23.0
 40
23.0
 40
23.0
 40
24.0
 40
24.0
 40
24.0
 40
25.0
 40
25.0
 40
25.0
 40
26.0
 40
26.0
 40
26.0
 40
27.0
 40
27.0
 40
27.0
 40
28.0
 40
28.0
 40
28.0
 40
29.0
 40
29.0
 40
29.0
 40
30.0
 40
30.0
 40
30.0
 40
31.0
 40
31.0
 40
31.0
 40
32.0
 40
32.0
 40
32.0
 40
33.0
 40
33.0
 40
33.0
 40
34.0
 40
34.0
 40
34.0
 40
35.0
 40
35.0
 40
35.0
 40
36.0
 40
36.0
 40
36.0
 40
37.0
 40
37.0
 40
37.0
 40
38.0
 40
38.0
 40
38.0
 40
39.0
 40
39.0
 40
39.0
 40
40.0
 40
40.0
 40
40.0
 40
40.0
 10
8.289008246527776
 20
-1.59109157986111
 30
0.0
 10
8.289008246527776
 20
-1.56890869140625
 30
0.0
 10
8.292521158854166
 20
-1.548848470052083
 30
0.0
 10
8.299533420138889
 20
-1.530904134114583
 30
0.0
 10
8.30654568142361
 20
-1.51296657986111
 30
0.0
 10
8.316487630208332
 20
-1.497551812065972
 30
0.0
 10
8.329386393229166
 20
-1.484659830729166
 30
0.0
 10
8.342271592881944
 20
-1.471774631076388
 30
0.0
 10
8.357760959201389
 20
-1.461825900607638
 30
0.0
 10
8.375868055555555
 20
-1.454806857638888
 30
0.0
 10
8.393975151909721
 20
-1.447801378038194
 30
0.0
 10
8.413953993055555
 20
-1.444288465711805
 30
0.0
 10
8.43581814236111
 20
-1.444288465711805
 30
0.0
 10
8.43581814236111
 20
-1.444288465711805
 30
0.0
 10
8.700059678819444
 20
-1.444288465711805
 30
0.0
 10
8.700059678819444
 20
-1.444288465711805
 30
0.0
 10
8.71474880642361
 20
-1.444288465711805
 30
0.0
 10
8.7265625
 20
-1.448777940538194
 30
0.0
 10
8.735541449652776
 20
-1.457743326822916
 30
0.0
 10
8.7445068359375
 20
-1.466722276475694
 30
0.0
 10
8.748996310763889
 20
-1.47854275173611
 30
0.0
 10
8.748996310763889
 20
-1.49322509765625
 30
0.0
 10
8.748996310763889
 20
-1.49322509765625
 30
0.0
 10
8.748996310763889
 20
-1.542154947916666
 30
0.0
 10
8.748996310763889
 20
-1.542154947916666
 30
0.0
 10
8.748996310763889
 20
-1.5574951171875
 30
0.0
 10
8.7445068359375
 20
-1.56948513454861
 30
0.0
 10
8.735541449652776
 20
-1.578125
 30
0.0
 10
8.7265625
 20
-1.586771647135416
 30
0.0
 10
8.71474880642361
 20
-1.59109157986111
 30
0.0
 10
8.700059678819444
 20
-1.59109157986111
 30
0.0
 10
8.700059678819444
 20
-1.59109157986111
 30
0.0
 10
8.53369140625
 20
-1.59109157986111
 30
0.0
 10
8.53369140625
 20
-1.59109157986111
 30
0.0
 10
8.519002278645832
 20
-1.59109157986111
 30
0.0
 10
8.507175021701389
 20
-1.595662434895833
 30
0.0
 10
8.498209635416666
 20
-1.60479736328125
 30
0.0
 10
8.489230685763889
 20
-1.613932291666666
 30
0.0
 10
8.484754774305555
 20
-1.625678168402777
 30
0.0
 10
8.484754774305555
 20
-1.640028211805555
 30
0.0
 10
8.484754774305555
 20
-1.640028211805555
 30
0.0
 10
8.484754774305555
 20
-1.78683132595486
 30
0.0
 10
8.484754774305555
 20
-1.78683132595486
 30
0.0
 10
8.484754774305555
 20
-1.801513671875
 30
0.0
 10
8.489230685763889
 20
-1.813340928819444
 30
0.0
 10
8.498209635416666
 20
-1.822306315104166
 30
0.0
 10
8.507175021701389
 20
-1.831285264756944
 30
0.0
 10
8.519002278645832
 20
-1.835767957899305
 30
0.0
 10
8.53369140625
 20
-1.835767957899305
 30
0.0
 10
8.53369140625
 20
-1.835767957899305
 30
0.0
 10
8.631551106770832
 20
-1.835767957899305
 30
0.0
 10
8.631551106770832
 20
-1.835767957899305
 30
0.0
 10
8.646240234375
 20
-1.835767957899305
 30
0.0
 10
8.658053927951389
 20
-1.840250651041666
 30
0.0
 10
8.667032877604166
 20
-1.849222819010416
 30
0.0
 10
8.675998263888889
 20
-1.858201768663194
 30
0.0
 10
8.680487738715276
 20
-1.87002224392361
 30
0.0
 10
8.680487738715276
 20
-1.884697808159722
 30
0.0
 10
8.680487738715276
 20
-1.884697808159722
 30
0.0
 10
8.680487738715276
 20
-1.933634440104166
 30
0.0
 10
8.680487738715276
 20
-1.933634440104166
 30
0.0
 10
8.680487738715276
 20
-1.948316786024305
 30
0.0
 10
8.675998263888889
 20
-1.96014404296875
 30
0.0
 10
8.667032877604166
 20
-1.969109429253472
 30
0.0
 10
8.658053927951389
 20
-1.97808837890625
 30
0.0
 10
8.646240234375
 20
-1.98257107204861
 30
0.0
 10
8.631551106770832
 20
-1.98257107204861
 30
0.0
 10
8.631551106770832
 20
-1.98257107204861
 30
0.0
 10
8.53369140625
 20
-1.98257107204861
 30
0.0
 10
8.53369140625
 20
-1.98257107204861
 30
0.0
 10
8.519002278645832
 20
-1.98257107204861
 30
0.0
 10
8.507175021701389
 20
-1.987060546875
 30
0.0
 10
8.498209635416666
 20
-1.996025933159722
 30
0.0
 10
8.489230685763889
 20
-2.0050048828125
 30
0.0
 10
8.484754774305555
 20
-2.016825358072916
 30
0.0
 10
8.484754774305555
 20
-2.031500922309027
 30
0.0
 10
8.484754774305555
 20
-2.031500922309027
 30
0.0
 10
8.484754774305555
 20
-2.227240668402777
 30
0.0
 10
8.484754774305555
 20
-2.227240668402777
 30
0.0
 10
8.484754774305555
 20
-2.241923014322916
 30
0.0
 10
8.489230685763889
 20
-2.253750271267361
 30
0.0
 10
8.498209635416666
 20
-2.262722439236111
 30
0.0
 10
8.507175021701389
 20
-2.271694607204861
 30
0.0
 10
8.519002278645832
 20
-2.276177300347221
 30
0.0
 10
8.53369140625
 20
-2.276177300347221
 30
0.0
 10
8.53369140625
 20
-2.276177300347221
 30
0.0
 10
8.700059678819444
 20
-2.276177300347221
 30
0.0
 10
8.700059678819444
 20
-2.276177300347221
 30
0.0
 10
8.71474880642361
 20
-2.276177300347221
 30
0.0
 10
8.7265625
 20
-2.280666775173611
 30
0.0
 10
8.735541449652776
 20
-2.289632161458333
 30
0.0
 10
8.7445068359375
 20
-2.298611111111111
 30
0.0
 10
8.748996310763889
 20
-2.310431586371527
 30
0.0
 10
8.748996310763889
 20
-2.325113932291666
 30
0.0
 10
8.748996310763889
 20
-2.325113932291666
 30
0.0
 10
8.748996310763889
 20
-2.374043782552083
 30
0.0
 10
8.748996310763889
 20
-2.374043782552083
 30
0.0
 10
8.748996310763889
 20
-2.388726128472221
 30
0.0
 10
8.7445068359375
 20
-2.400553385416666
 30
0.0
 10
8.735541449652776
 20
-2.409525553385416
 30
0.0
 10
8.7265625
 20
-2.418497721354166
 30
0.0
 10
8.71474880642361
 20
-2.422980414496527
 30
0.0
 10
8.700059678819444
 20
-2.422980414496527
 30
0.0
 10
8.700059678819444
 20
-2.422980414496527
 30
0.0
 10
8.43581814236111
 20
-2.422980414496527
 30
0.0
 10
8.43581814236111
 20
-2.422980414496527
 30
0.0
 10
8.413953993055555
 20
-2.422980414496527
 30
0.0
 10
8.393975151909721
 20
-2.419481065538194
 30
0.0
 10
8.375868055555555
 20
-2.412462022569444
 30
0.0
 10
8.357760959201389
 20
-2.405449761284721
 30
0.0
 10
8.342271592881944
 20
-2.395501030815971
 30
0.0
 10
8.329386393229166
 20
-2.382609049479166
 30
0.0
 10
8.316487630208332
 20
-2.369723849826388
 30
0.0
 10
8.30654568142361
 20
-2.354227701822916
 30
0.0
 10
8.299533420138889
 20
-2.33612060546875
 30
0.0
 10
8.292521158854166
 20
-2.318013509114583
 30
0.0
 10
8.289008246527776
 20
-2.29803466796875
 30
0.0
 10
8.289008246527776
 20
-2.276177300347221
 30
0.0
 10
8.289008246527776
 20
-2.276177300347221
 30
0.0
 10
8.289008246527776
 20
-1.59109157986111
 30
0.0
 10
8.289008246527776
 20
-1.59109157986111
 30
0.0
  0
ENDBLK
  5
83
330
80
100
AcDbEntity
  8
0
100
AcDbBlockEnd
  0
BLOCK
  5
8F
330
8D
100
AcDbEntity
  8
0
100
AcDbBlockBegin
  2
Block_1
 70
     0
 10
0.0
 20
0.0
 30
0.0
  3
Block_1
  1

  0
SPLINE
  5
91
330
8D
100
AcDbEntity
  8
Layer 1
100
AcDbSpline
210
0.0
220
0.0
230
1.0
 70
     9
 71
     3
 72
    59
 73
    55
 74
     0
 42
0.0000000001
 43
0.0000000001
 40
0.0
 40
0.0
 40
0.0
 40
0.0
 40
1.0
 40
1.0
 40
1.0
 40
2.0
 40
2.0
 40
2.0
 40
3.0
 40
3.0
 40
3.0
 40
4.0
 40
4.0
 40
4.0
 40
5.0
 40
5.0
 40
5.0
 40
6.0
 40
6.0
 40
6.0
 40
7.0
 40
7.0
 40
7.0
 40
8.0
 40
8.0
 40
8.0
 40
9.0
 40
9.0
 40
9.0
 40
10.0
 40
10.0
 40
10.0
 40
11.0
 40
11.0
 40
11.0
 40
12.0
 40
12.0
 40
12.0
 40
13.0
 40
13.0
 40
13.0
 40
14.0
 40
14.0
 40
14.0
 40
15.0
 40
15.0
 40
15.0
 40
16.0
 40
16.0
 40
16.0
 40
17.0
 40
17.0
 40
17.0
 40
18.0
 40
18.0
 40
18.0
 40
18.0
 10
5.107076009114583
 20
-4.485120985243055
 30
0.0
 10
5.12872314453125
 20
-4.485120985243055
 30
0.0
 10
5.146158854166666
 20
-4.480156792534722
 30
0.0
 10
5.159396701388888
 20
-4.470228407118055
 30
0.0
 10
5.172620985243055
 20
-4.460300021701388
 30
0.0
 10
5.179239908854166
 20
-4.446872287326388
 30
0.0
 10
5.179239908854166
 20
-4.42995876736111
 30
0.0
 10
5.179239908854166
 20
-4.42995876736111
 30
0.0
 10
5.179239908854166
 20
-3.767903645833333
 30
0.0
 10
5.179239908854166
 20
-3.767903645833333
 30
0.0
 10
5.179239908854166
 20
-3.751356336805555
 30
0.0
 10
5.172620985243055
 20
-3.738037109375
 30
0.0
 10
5.159396701388888
 20
-3.7279052734375
 30
0.0
 10
5.146158854166666
 20
-3.71780056423611
 30
0.0
 10
5.12872314453125
 20
-3.712741427951388
 30
0.0
 10
5.107076009114583
 20
-3.712741427951388
 30
0.0
 10
5.107076009114583
 20
-3.712741427951388
 30
0.0
 10
5.107076009114583
 20
-3.547227647569444
 30
0.0
 10
5.107076009114583
 20
-3.547227647569444
 30
0.0
 10
5.107076009114583
 20
-3.547227647569444
 30
0.0
 10
5.236972384982638
 20
-3.547227647569444
 30
0.0
 10
5.236972384982638
 20
-3.547227647569444
 30
0.0
 10
5.269687228732638
 20
-3.547227647569444
 30
0.0
 10
5.299275716145833
 20
-3.551188151041666
 30
0.0
 10
5.325737847222222
 20
-3.55908203125
 30
0.0
 10
5.352193196614583
 20
-3.567003038194444
 30
0.0
 10
5.374925401475693
 20
-3.578219943576388
 30
0.0
 10
5.393934461805555
 20
-3.592746310763888
 30
0.0
 10
5.412936740451388
 20
-3.607272677951388
 30
0.0
 10
5.427605523003472
 20
-3.62466091579861
 30
0.0
 10
5.437961154513888
 20
-3.644883897569444
 30
0.0
 10
5.448296440972222
 20
-3.665106879340277
 30
0.0
 10
5.453470865885416
 20
-3.687730577256944
 30
0.0
 10
5.453470865885416
 20
-3.712741427951388
 30
0.0
 10
5.453470865885416
 20
-3.712741427951388
 30
0.0
 10
5.453470865885416
 20
-4.485120985243055
 30
0.0
 10
5.453470865885416
 20
-4.485120985243055
 30
0.0
 10
5.453470865885416
 20
-4.509765625
 30
0.0
 10
5.448296440972222
 20
-4.532294379340277
 30
0.0
 10
5.437961154513888
 20
-4.552707248263888
 30
0.0
 10
5.427605523003472
 20
-4.5731201171875
 30
0.0
 10
5.412936740451388
 20
-4.590589735243055
 30
0.0
 10
5.393934461805555
 20
-4.605116102430555
 30
0.0
 10
5.374925401475693
 20
-4.61965603298611
 30
0.0
 10
5.352193196614583
 20
-4.630872938368055
 30
0.0
 10
5.325737847222222
 20
-4.638766818576388
 30
0.0
 10
5.299275716145833
 20
-4.646687825520833
 30
0.0
 10
5.269687228732638
 20
-4.650634765625
 30
0.0
 10
5.236972384982638
 20
-4.650634765625
 30
0.0
 10
5.236972384982638
 20
-4.650634765625
 30
0.0
 10
5.107076009114583
 20
-4.650634765625
 30
0.0
 10
5.107076009114583
 20
-4.650634765625
 30
0.0
 10
5.107076009114583
 20
-4.650634765625
 30
0.0
 10
5.107076009114583
 20
-4.485120985243055
 30
0.0
 10
5.107076009114583
 20
-4.485120985243055
 30
0.0
  0
SPLINE
  5
92
330
8D
100
AcDbEntity
  8
Layer 1
100
AcDbSpline
210
0.0
220
0.0
230
1.0
 70
     9
 71
     3
 72
    47
 73
    43
 74
     0
 42
0.0000000001
 43
0.0000000001
 40
0.0
 40
0.0
 40
0.0
 40
0.0
 40
1.0
 40
1.0
 40
1.0
 40
2.0
 40
2.0
 40
2.0
 40
3.0
 40
3.0
 40
3.0
 40
4.0
 40
4.0
 40
4.0
 40
5.0
 40
5.0
 40
5.0
 40
6.0
 40
6.0
 40
6.0
 40
7.0
 40
7.0
 40
7.0
 40
8.0
 40
8.0
 40
8.0
 40
9.0
 40
9.0
 40
9.0
 40
10.0
 40
10.0
 40
10.0
 40
11.0
 40
11.0
 40
11.0
 40
12.0
 40
12.0
 40
12.0
 40
13.0
 40
13.0
 40
13.0
 40
14.0
 40
14.0
 40
14.0
 40
14.0
 10
4.962741427951388
 20
-4.42995876736111
 30
0.0
 10
4.962741427951388
 20
-4.446872287326388
 30
0.0
 10
4.969346788194443
 20
-4.460300021701388
 30
0.0
 10
4.982584635416666
 20
-4.470228407118055
 30
0.0
 10
4.99581570095486
 20
-4.480156792534722
 30
0.0
 10
5.013258192274305
 20
-4.485120985243055
 30
0.0
 10
5.034905327690972
 20
-4.485120985243055
 30
0.0
 10
5.034905327690972
 20
-4.485120985243055
 30
0.0
 10
5.034905327690972
 20
-4.650634765625
 30
0.0
 10
5.034905327690972
 20
-4.650634765625
 30
0.0
 10
5.034905327690972
 20
-4.650634765625
 30
0.0
 10
4.760674370659722
 20
-4.650634765625
 30
0.0
 10
4.760674370659722
 20
-4.650634765625
 30
0.0
 10
4.739027235243055
 20
-4.650634765625
 30
0.0
 10
4.72158474392361
 20
-4.645589192708333
 30
0.0
 10
4.708353678385416
 20
-4.635457356770833
 30
0.0
 10
4.695115831163193
 20
-4.625352647569443
 30
0.0
 10
4.688510470920138
 20
-4.612019856770833
 30
0.0
 10
4.688510470920138
 20
-4.595458984375
 30
0.0
 10
4.688510470920138
 20
-4.595458984375
 30
0.0
 10
4.688510470920138
 20
-3.602403428819444
 30
0.0
 10
4.688510470920138
 20
-3.602403428819444
 30
0.0
 10
4.688510470920138
 20
-3.58584255642361
 30
0.0
 10
4.695115831163193
 20
-3.572523328993055
 30
0.0
 10
4.708353678385416
 20
-3.56240505642361
 30
0.0
 10
4.72158474392361
 20
-3.552286783854166
 30
0.0
 10
4.739027235243055
 20
-3.547227647569444
 30
0.0
 10
4.760674370659722
 20
-3.547227647569444
 30
0.0
 10
4.760674370659722
 20
-3.547227647569444
 30
0.0
 10
5.034905327690972
 20
-3.547227647569444
 30
0.0
 10
5.034905327690972
 20
-3.547227647569444
 30
0.0
 10
5.034905327690972
 20
-3.547227647569444
 30
0.0
 10
5.034905327690972
 20
-3.712741427951388
 30
0.0
 10
5.034905327690972
 20
-3.712741427951388
 30
0.0
 10
5.013258192274305
 20
-3.712741427951388
 30
0.0
 10
4.99581570095486
 20
-3.71780056423611
 30
0.0
 10
4.982584635416666
 20
-3.7279052734375
 30
0.0
 10
4.969346788194443
 20
-3.738037109375
 30
0.0
 10
4.962741427951388
 20
-3.751356336805555
 30
0.0
 10
4.962741427951388
 20
-3.767903645833333
 30
0.0
 10
4.962741427951388
 20
-3.767903645833333
 30
0.0
 10
4.962741427951388
 20
-4.42995876736111
 30
0.0
 10
4.962741427951388
 20
-4.42995876736111
 30
0.0
  0
SPLINE
  5
93
330
8D
100
AcDbEntity
  8
Layer 1
100
AcDbSpline
210
0.0
220
0.0
230
1.0
 70
     9
 71
     3
 72
    59
 73
    55
 74
     0
 42
0.0000000001
 43
0.0000000001
 40
0.0
 40
0.0
 40
0.0
 40
0.0
 40
1.0
 40
1.0
 40
1.0
 40
2.0
 40
2.0
 40
2.0
 40
3.0
 40
3.0
 40
3.0
 40
4.0
 40
4.0
 40
4.0
 40
5.0
 40
5.0
 40
5.0
 40
6.0
 40
6.0
 40
6.0
 40
7.0
 40
7.0
 40
7.0
 40
8.0
 40
8.0
 40
8.0
 40
9.0
 40
9.0
 40
9.0
 40
10.0
 40
10.0
 40
10.0
 40
11.0
 40
11.0
 40
11.0
 40
12.0
 40
12.0
 40
12.0
 40
13.0
 40
13.0
 40
13.0
 40
14.0
 40
14.0
 40
14.0
 40
15.0
 40
15.0
 40
15.0
 40
16.0
 40
16.0
 40
16.0
 40
17.0
 40
17.0
 40
17.0
 40
18.0
 40
18.0
 40
18.0
 40
18.0
 10
6.059672037760416
 20
-4.485120985243055
 30
0.0
 10
6.081319173177083
 20
-4.485120985243055
 30
0.0
 10
6.0987548828125
 20
-4.480075412326388
 30
0.0
 10
6.111992730034722
 20
-4.469957139756943
 30
0.0
 10
6.125217013888888
 20
-4.4598388671875
 30
0.0
 10
6.1318359375
 20
-4.446506076388888
 30
0.0
 10
6.1318359375
 20
-4.42995876736111
 30
0.0
 10
6.1318359375
 20
-4.42995876736111
 30
0.0
 10
6.1318359375
 20
-3.767903645833333
 30
0.0
 10
6.1318359375
 20
-3.767903645833333
 30
0.0
 10
6.1318359375
 20
-3.751356336805555
 30
0.0
 10
6.125217013888888
 20
-3.738037109375
 30
0.0
 10
6.111992730034722
 20
-3.7279052734375
 30
0.0
 10
6.0987548828125
 20
-3.71780056423611
 30
0.0
 10
6.081319173177083
 20
-3.712741427951388
 30
0.0
 10
6.059672037760416
 20
-3.712741427951388
 30
0.0
 10
6.059672037760416
 20
-3.712741427951388
 30
0.0
 10
6.059672037760416
 20
-3.547227647569444
 30
0.0
 10
6.059672037760416
 20
-3.547227647569444
 30
0.0
 10
6.059672037760416
 20
-3.547227647569444
 30
0.0
 10
6.203999837239583
 20
-3.547227647569444
 30
0.0
 10
6.203999837239583
 20
-3.547227647569444
 30
0.0
 10
6.236714680989583
 20
-3.547227647569444
 30
0.0
 10
6.266309950086805
 20
-3.551188151041666
 30
0.0
 10
6.292772081163193
 20
-3.55908203125
 30
0.0
 10
6.319220648871527
 20
-3.567003038194444
 30
0.0
 10
6.341952853732638
 20
-3.578219943576388
 30
0.0
 10
6.360968695746527
 20
-3.592746310763888
 30
0.0
 10
6.37997097439236
 20
-3.607272677951388
 30
0.0
 10
6.394632975260416
 20
-3.62466091579861
 30
0.0
 10
6.404981825086805
 20
-3.644883897569444
 30
0.0
 10
6.415330674913193
 20
-3.665106879340277
 30
0.0
 10
6.42049831814236
 20
-3.687730577256944
 30
0.0
 10
6.42049831814236
 20
-3.712741427951388
 30
0.0
 10
6.42049831814236
 20
-3.712741427951388
 30
0.0
 10
6.42049831814236
 20
-4.485120985243055
 30
0.0
 10
6.42049831814236
 20
-4.485120985243055
 30
0.0
 10
6.42049831814236
 20
-4.509765625
 30
0.0
 10
6.415330674913193
 20
-4.532294379340277
 30
0.0
 10
6.404981825086805
 20
-4.552707248263888
 30
0.0
 10
6.394632975260416
 20
-4.5731201171875
 30
0.0
 10
6.37997097439236
 20
-4.590589735243055
 30
0.0
 10
6.360968695746527
 20
-4.605116102430555
 30
0.0
 10
6.341952853732638
 20
-4.61965603298611
 30
0.0
 10
6.319220648871527
 20
-4.630872938368055
 30
0.0
 10
6.292772081163193
 20
-4.638766818576388
 30
0.0
 10
6.266309950086805
 20
-4.646687825520833
 30
0.0
 10
6.236714680989583
 20
-4.650634765625
 30
0.0
 10
6.203999837239583
 20
-4.650634765625
 30
0.0
 10
6.203999837239583
 20
-4.650634765625
 30
0.0
 10
6.059672037760416
 20
-4.650634765625
 30
0.0
 10
6.059672037760416
 20
-4.650634765625
 30
0.0
 10
6.059672037760416
 20
-4.650634765625
 30
0.0
 10
6.059672037760416
 20
-4.485120985243055
 30
0.0
 10
6.059672037760416
 20
-4.485120985243055
 30
0.0
  0
SPLINE
  5
94
330
8D
100
AcDbEntity
  8
Layer 1
100
AcDbSpline
210
0.0
220
0.0
230
1.0
 70
     9
 71
     3
 72
    59
 73
    55
 74
     0
 42
0.0000000001
 43
0.0000000001
 40
0.0
 40
0.0
 40
0.0
 40
0.0
 40
1.0
 40
1.0
 40
1.0
 40
2.0
 40
2.0
 40
2.0
 40
3.0
 40
3.0
 40
3.0
 40
4.0
 40
4.0
 40
4.0
 40
5.0
 40
5.0
 40
5.0
 40
6.0
 40
6.0
 40
6.0
 40
7.0
 40
7.0
 40
7.0
 40
8.0
 40
8.0
 40
8.0
 40
9.0
 40
9.0
 40
9.0
 40
10.0
 40
10.0
 40
10.0
 40
11.0
 40
11.0
 40
11.0
 40
12.0
 40
12.0
 40
12.0
 40
13.0
 40
13.0
 40
13.0
 40
14.0
 40
14.0
 40
14.0
 40
15.0
 40
15.0
 40
15.0
 40
16.0
 40
16.0
 40
16.0
 40
17.0
 40
17.0
 40
17.0
 40
18.0
 40
18.0
 40
18.0
 40
18.0
 10
5.915337456597222
 20
-4.42995876736111
 30
0.0
 10
5.915337456597222
 20
-4.446506076388888
 30
0.0
 10
5.921949598524305
 20
-4.4598388671875
 30
0.0
 10
5.935187445746527
 20
-4.469957139756943
 30
0.0
 10
5.948411729600693
 20
-4.480075412326388
 30
0.0
 10
5.965854220920138
 20
-4.485120985243055
 30
0.0
 10
5.987508138020833
 20
-4.485120985243055
 30
0.0
 10
5.987508138020833
 20
-4.485120985243055
 30
0.0
 10
5.987508138020833
 20
-4.650634765625
 30
0.0
 10
5.987508138020833
 20
-4.650634765625
 30
0.0
 10
5.987508138020833
 20
-4.650634765625
 30
0.0
 10
5.843173556857638
 20
-4.650634765625
 30
0.0
 10
5.843173556857638
 20
-4.650634765625
 30
0.0
 10
5.810933430989583
 20
-4.650634765625
 30
0.0
 10
5.781467013888888
 20
-4.646687825520833
 30
0.0
 10
5.754767523871527
 20
-4.638766818576388
 30
0.0
 10
5.728068033854166
 20
-4.630872938368055
 30
0.0
 10
5.705206976996527
 20
-4.61965603298611
 30
0.0
 10
5.686211480034722
 20
-4.605116102430555
 30
0.0
 10
5.667195638020833
 20
-4.590589735243055
 30
0.0
 10
5.65252685546875
 20
-4.5731201171875
 30
0.0
 10
5.642191569010416
 20
-4.552707248263888
 30
0.0
 10
5.6318359375
 20
-4.532294379340277
 30
0.0
 10
5.62667507595486
 20
-4.509765625
 30
0.0
 10
5.62667507595486
 20
-4.485120985243055
 30
0.0
 10
5.62667507595486
 20
-4.485120985243055
 30
0.0
 10
5.62667507595486
 20
-3.712741427951388
 30
0.0
 10
5.62667507595486
 20
-3.712741427951388
 30
0.0
 10
5.62667507595486
 20
-3.687730577256944
 30
0.0
 10
5.6318359375
 20
-3.665106879340277
 30
0.0
 10
5.642191569010416
 20
-3.644883897569444
 30
0.0
 10
5.65252685546875
 20
-3.62466091579861
 30
0.0
 10
5.667195638020833
 20
-3.607272677951388
 30
0.0
 10
5.686211480034722
 20
-3.592746310763888
 30
0.0
 10
5.705206976996527
 20
-3.578219943576388
 30
0.0
 10
5.728068033854166
 20
-3.567003038194444
 30
0.0
 10
5.754767523871527
 20
-3.55908203125
 30
0.0
 10
5.781467013888888
 20
-3.551188151041666
 30
0.0
 10
5.810933430989583
 20
-3.547227647569444
 30
0.0
 10
5.843173556857638
 20
-3.547227647569444
 30
0.0
 10
5.843173556857638
 20
-3.547227647569444
 30
0.0
 10
5.987508138020833
 20
-3.547227647569444
 30
0.0
 10
5.987508138020833
 20
-3.547227647569444
 30
0.0
 10
5.987508138020833
 20
-3.547227647569444
 30
0.0
 10
5.987508138020833
 20
-3.712741427951388
 30
0.0
 10
5.987508138020833
 20
-3.712741427951388
 30
0.0
 10
5.965854220920138
 20
-3.712741427951388
 30
0.0
 10
5.948411729600693
 20
-3.71780056423611
 30
0.0
 10
5.935187445746527
 20
-3.7279052734375
 30
0.0
 10
5.921949598524305
 20
-3.738037109375
 30
0.0
 10
5.915337456597222
 20
-3.751356336805555
 30
0.0
 10
5.915337456597222
 20
-3.767903645833333
 30
0.0
 10
5.915337456597222
 20
-3.767903645833333
 30
0.0
 10
5.915337456597222
 20
-4.42995876736111
 30
0.0
 10
5.915337456597222
 20
-4.42995876736111
 30
0.0
  0
SPLINE
  5
95
330
8D
100
AcDbEntity
  8
Layer 1
100
AcDbSpline
210
0.0
220
0.0
230
1.0
 70
     9
 71
     3
 72
    59
 73
    55
 74
     0
 42
0.0000000001
 43
0.0000000001
 40
0.0
 40
0.0
 40
0.0
 40
0.0
 40
1.0
 40
1.0
 40
1.0
 40
2.0
 40
2.0
 40
2.0
 40
3.0
 40
3.0
 40
3.0
 40
4.0
 40
4.0
 40
4.0
 40
5.0
 40
5.0
 40
5.0
 40
6.0
 40
6.0
 40
6.0
 40
7.0
 40
7.0
 40
7.0
 40
8.0
 40
8.0
 40
8.0
 40
9.0
 40
9.0
 40
9.0
 40
10.0
 40
10.0
 40
10.0
 40
11.0
 40
11.0
 40
11.0
 40
12.0
 40
12.0
 40
12.0
 40
13.0
 40
13.0
 40
13.0
 40
14.0
 40
14.0
 40
14.0
 40
15.0
 40
15.0
 40
15.0
 40
16.0
 40
16.0
 40
16.0
 40
17.0
 40
17.0
 40
17.0
 40
18.0
 40
18.0
 40
18.0
 40
18.0
 10
7.026706271701388
 20
-4.485120985243055
 30
0.0
 10
7.048353407118055
 20
-4.485120985243055
 30
0.0
 10
7.065782335069443
 20
-4.480075412326388
 30
0.0
 10
7.079020182291666
 20
-4.469957139756943
 30
0.0
 10
7.092258029513888
 20
-4.4598388671875
 30
0.0
 10
7.098876953125
 20
-4.446506076388888
 30
0.0
 10
7.098876953125
 20
-4.42995876736111
 30
0.0
 10
7.098876953125
 20
-4.42995876736111
 30
0.0
 10
7.098876953125
 20
-3.767903645833333
 30
0.0
 10
7.098876953125
 20
-3.767903645833333
 30
0.0
 10
7.098876953125
 20
-3.751356336805555
 30
0.0
 10
7.092258029513888
 20
-3.738037109375
 30
0.0
 10
7.079020182291666
 20
-3.7279052734375
 30
0.0
 10
7.065782335069443
 20
-3.71780056423611
 30
0.0
 10
7.048353407118055
 20
-3.712741427951388
 30
0.0
 10
7.026706271701388
 20
-3.712741427951388
 30
0.0
 10
7.026706271701388
 20
-3.712741427951388
 30
0.0
 10
7.026706271701388
 20
-3.547227647569444
 30
0.0
 10
7.026706271701388
 20
-3.547227647569444
 30
0.0
 10
7.026706271701388
 20
-3.547227647569444
 30
0.0
 10
7.171034071180555
 20
-3.547227647569444
 30
0.0
 10
7.171034071180555
 20
-3.547227647569444
 30
0.0
 10
7.203748914930555
 20
-3.547227647569444
 30
0.0
 10
7.233344184027777
 20
-3.551188151041666
 30
0.0
 10
7.259806315104166
 20
-3.55908203125
 30
0.0
 10
7.2862548828125
 20
-3.567003038194444
 30
0.0
 10
7.30898708767361
 20
-3.578219943576388
 30
0.0
 10
7.3280029296875
 20
-3.592746310763888
 30
0.0
 10
7.347005208333333
 20
-3.607272677951388
 30
0.0
 10
7.361667209201388
 20
-3.62466091579861
 30
0.0
 10
7.372016059027777
 20
-3.644883897569444
 30
0.0
 10
7.382364908854166
 20
-3.665106879340277
 30
0.0
 10
7.387532552083333
 20
-3.687730577256944
 30
0.0
 10
7.387532552083333
 20
-3.712741427951388
 30
0.0
 10
7.387532552083333
 20
-3.712741427951388
 30
0.0
 10
7.387532552083333
 20
-4.485120985243055
 30
0.0
 10
7.387532552083333
 20
-4.485120985243055
 30
0.0
 10
7.387532552083333
 20
-4.509765625
 30
0.0
 10
7.382364908854166
 20
-4.532294379340277
 30
0.0
 10
7.372016059027777
 20
-4.552707248263888
 30
0.0
 10
7.361667209201388
 20
-4.5731201171875
 30
0.0
 10
7.347005208333333
 20
-4.590589735243055
 30
0.0
 10
7.3280029296875
 20
-4.605116102430555
 30
0.0
 10
7.30898708767361
 20
-4.61965603298611
 30
0.0
 10
7.2862548828125
 20
-4.630872938368055
 30
0.0
 10
7.259806315104166
 20
-4.638766818576388
 30
0.0
 10
7.233344184027777
 20
-4.646687825520833
 30
0.0
 10
7.203748914930555
 20
-4.650634765625
 30
0.0
 10
7.171034071180555
 20
-4.650634765625
 30
0.0
 10
7.171034071180555
 20
-4.650634765625
 30
0.0
 10
7.026706271701388
 20
-4.650634765625
 30
0.0
 10
7.026706271701388
 20
-4.650634765625
 30
0.0
 10
7.026706271701388
 20
-4.650634765625
 30
0.0
 10
7.026706271701388
 20
-4.485120985243055
 30
0.0
 10
7.026706271701388
 20
-4.485120985243055
 30
0.0
  0
SPLINE
  5
96
330
8D
100
AcDbEntity
  8
Layer 1
100
AcDbSpline
210
0.0
220
0.0
230
1.0
 70
     9
 71
     3
 72
    59
 73
    55
 74
     0
 42
0.0000000001
 43
0.0000000001
 40
0.0
 40
0.0
 40
0.0
 40
0.0
 40
1.0
 40
1.0
 40
1.0
 40
2.0
 40
2.0
 40
2.0
 40
3.0
 40
3.0
 40
3.0
 40
4.0
 40
4.0
 40
4.0
 40
5.0
 40
5.0
 40
5.0
 40
6.0
 40
6.0
 40
6.0
 40
7.0
 40
7.0
 40
7.0
 40
8.0
 40
8.0
 40
8.0
 40
9.0
 40
9.0
 40
9.0
 40
10.0
 40
10.0
 40
10.0
 40
11.0
 40
11.0
 40
11.0
 40
12.0
 40
12.0
 40
12.0
 40
13.0
 40
13.0
 40
13.0
 40
14.0
 40
14.0
 40
14.0
 40
15.0
 40
15.0
 40
15.0
 40
16.0
 40
16.0
 40
16.0
 40
17.0
 40
17.0
 40
17.0
 40
18.0
 40
18.0
 40
18.0
 40
18.0
 10
6.882378472222221
 20
-4.42995876736111
 30
0.0
 10
6.882378472222221
 20
-4.446506076388888
 30
0.0
 10
6.888983832465277
 20
-4.4598388671875
 30
0.0
 10
6.9022216796875
 20
-4.469957139756943
 30
0.0
 10
6.915445963541666
 20
-4.480075412326388
 30
0.0
 10
6.93288845486111
 20
-4.485120985243055
 30
0.0
 10
6.954535590277777
 20
-4.485120985243055
 30
0.0
 10
6.954535590277777
 20
-4.485120985243055
 30
0.0
 10
6.954535590277777
 20
-4.650634765625
 30
0.0
 10
6.954535590277777
 20
-4.650634765625
 30
0.0
 10
6.954535590277777
 20
-4.650634765625
 30
0.0
 10
6.81020779079861
 20
-4.650634765625
 30
0.0
 10
6.81020779079861
 20
-4.650634765625
 30
0.0
 10
6.777967664930555
 20
-4.650634765625
 30
0.0
 10
6.748508029513888
 20
-4.646687825520833
 30
0.0
 10
6.7218017578125
 20
-4.638766818576388
 30
0.0
 10
6.69509548611111
 20
-4.630872938368055
 30
0.0
 10
6.6722412109375
 20
-4.61965603298611
 30
0.0
 10
6.653238932291666
 20
-4.605116102430555
 30
0.0
 10
6.634236653645833
 20
-4.590589735243055
 30
0.0
 10
6.619561089409721
 20
-4.5731201171875
 30
0.0
 10
6.609225802951388
 20
-4.552707248263888
 30
0.0
 10
6.598876953125
 20
-4.532294379340277
 30
0.0
 10
6.593709309895833
 20
-4.509765625
 30
0.0
 10
6.593709309895833
 20
-4.485120985243055
 30
0.0
 10
6.593709309895833
 20
-4.485120985243055
 30
0.0
 10
6.593709309895833
 20
-3.712741427951388
 30
0.0
 10
6.593709309895833
 20
-3.712741427951388
 30
0.0
 10
6.593709309895833
 20
-3.687730577256944
 30
0.0
 10
6.598876953125
 20
-3.665106879340277
 30
0.0
 10
6.609225802951388
 20
-3.644883897569444
 30
0.0
 10
6.619561089409721
 20
-3.62466091579861
 30
0.0
 10
6.634236653645833
 20
-3.607272677951388
 30
0.0
 10
6.653238932291666
 20
-3.592746310763888
 30
0.0
 10
6.6722412109375
 20
-3.578219943576388
 30
0.0
 10
6.69509548611111
 20
-3.567003038194444
 30
0.0
 10
6.7218017578125
 20
-3.55908203125
 30
0.0
 10
6.748508029513888
 20
-3.551188151041666
 30
0.0
 10
6.777967664930555
 20
-3.547227647569444
 30
0.0
 10
6.81020779079861
 20
-3.547227647569444
 30
0.0
 10
6.81020779079861
 20
-3.547227647569444
 30
0.0
 10
6.954535590277777
 20
-3.547227647569444
 30
0.0
 10
6.954535590277777
 20
-3.547227647569444
 30
0.0
 10
6.954535590277777
 20
-3.547227647569444
 30
0.0
 10
6.954535590277777
 20
-3.712741427951388
 30
0.0
 10
6.954535590277777
 20
-3.712741427951388
 30
0.0
 10
6.93288845486111
 20
-3.712741427951388
 30
0.0
 10
6.915445963541666
 20
-3.71780056423611
 30
0.0
 10
6.9022216796875
 20
-3.7279052734375
 30
0.0
 10
6.888983832465277
 20
-3.738037109375
 30
0.0
 10
6.882378472222221
 20
-3.751356336805555
 30
0.0
 10
6.882378472222221
 20
-3.767903645833333
 30
0.0
 10
6.882378472222221
 20
-3.767903645833333
 30
0.0
 10
6.882378472222221
 20
-4.42995876736111
 30
0.0
 10
6.882378472222221
 20
-4.42995876736111
 30
0.0
  0
SPLINE
  5
97
330
8D
100
AcDbEntity
  8
Layer 1
100
AcDbSpline
210
0.0
220
0.0
230
1.0
 70
    11
 71
     3
 72
    98
 73
    94
 74
     0
 42
0.0000000001
 43
0.0000000001
 40
0.0
 40
0.0
 40
0.0
 40
0.0
 40
1.0
 40
1.0
 40
1.0
 40
2.0
 40
2.0
 40
2.0
 40
3.0
 40
3.0
 40
3.0
 40
4.0
 40
4.0
 40
4.0
 40
5.0
 40
5.0
 40
5.0
 40
6.0
 40
6.0
 40
6.0
 40
7.0
 40
7.0
 40
7.0
 40
8.0
 40
8.0
 40
8.0
 40
9.0
 40
9.0
 40
9.0
 40
10.0
 40
10.0
 40
10.0
 40
11.0
 40
11.0
 40
11.0
 40
12.0
 40
12.0
 40
12.0
 40
13.0
 40
13.0
 40
13.0
 40
14.0
 40
14.0
 40
14.0
 40
15.0
 40
15.0
 40
15.0
 40
16.0
 40
16.0
 40
16.0
 40
17.0
 40
17.0
 40
17.0
 40
18.0
 40
18.0
 40
18.0
 40
19.0
 40
19.0
 40
19.0
 40
20.0
 40
20.0
 40
20.0
 40
21.0
 40
21.0
 40
21.0
 40
22.0
 40
22.0
 40
22.0
 40
23.0
 40
23.0
 40
23.0
 40
24.0
 40
24.0
 40
24.0
 40
25.0
 40
25.0
 40
25.0
 40
26.0
 40
26.0
 40
26.0
 40
27.0
 40
27.0
 40
27.0
 40
28.0
 40
28.0
 40
28.0
 40
29.0
 40
29.0
 40
29.0
 40
30.0
 40
30.0
 40
30.0
 40
31.0
 40
31.0
 40
31.0
 40
31.0
 10
7.91796875
 20
-4.043755425347222
 30
0.0
 10
7.91796875
 20
-4.043755425347222
 30
0.0
 10
7.99013943142361
 20
-4.043755425347222
 30
0.0
 10
7.99013943142361
 20
-4.043755425347222
 30
0.0
 10
8.011786566840276
 20
-4.043755425347222
 30
0.0
 10
8.029215494791666
 20
-4.039171006944444
 30
0.0
 10
8.042453342013889
 20
-4.029961480034722
 30
0.0
 10
8.05569118923611
 20
-4.02077907986111
 30
0.0
 10
8.062310112847221
 20
-4.00698513454861
 30
0.0
 10
8.062310112847221
 20
-3.988593207465277
 30
0.0
 10
8.062310112847221
 20
-3.988593207465277
 30
0.0
 10
8.062310112847221
 20
-3.767903645833333
 30
0.0
 10
8.062310112847221
 20
-3.767903645833333
 30
0.0
 10
8.062310112847221
 20
-3.749891493055555
 30
0.0
 10
8.05569118923611
 20
-3.736178927951388
 30
0.0
 10
8.042453342013889
 20
-3.726806640625
 30
0.0
 10
8.029215494791666
 20
-3.71743435329861
 30
0.0
 10
8.011786566840276
 20
-3.712741427951388
 30
0.0
 10
7.99013943142361
 20
-3.712741427951388
 30
0.0
 10
7.99013943142361
 20
-3.712741427951388
 30
0.0
 10
7.99013943142361
 20
-3.547227647569444
 30
0.0
 10
7.99013943142361
 20
-3.547227647569444
 30
0.0
 10
7.99013943142361
 20
-3.547227647569444
 30
0.0
 10
8.120035807291666
 20
-3.547227647569444
 30
0.0
 10
8.120035807291666
 20
-3.547227647569444
 30
0.0
 10
8.152750651041666
 20
-3.547227647569444
 30
0.0
 10
8.182332356770832
 20
-3.551188151041666
 30
0.0
 10
8.208808051215276
 20
-3.55908203125
 30
0.0
 10
8.23525661892361
 20
-3.567003038194444
 30
0.0
 10
8.257988823784721
 20
-3.578219943576388
 30
0.0
 10
8.27700466579861
 20
-3.592746310763888
 30
0.0
 10
8.296006944444444
 20
-3.607272677951388
 30
0.0
 10
8.3106689453125
 20
-3.62466091579861
 30
0.0
 10
8.321017795138889
 20
-3.644883897569444
 30
0.0
 10
8.331366644965276
 20
-3.665106879340277
 30
0.0
 10
8.336534288194444
 20
-3.687730577256944
 30
0.0
 10
8.336534288194444
 20
-3.712741427951388
 30
0.0
 10
8.336534288194444
 20
-3.712741427951388
 30
0.0
 10
8.336534288194444
 20
-4.043755425347222
 30
0.0
 10
8.336534288194444
 20
-4.043755425347222
 30
0.0
 10
8.336534288194444
 20
-4.06472439236111
 30
0.0
 10
8.332438151041666
 20
-4.084404839409722
 30
0.0
 10
8.324273003472221
 20
-4.102796766493055
 30
0.0
 10
8.316080729166666
 20
-4.121188693576388
 30
0.0
 10
8.304429796006944
 20
-4.137464735243055
 30
0.0
 10
8.289265950520832
 20
-4.151624891493055
 30
0.0
 10
8.274115668402776
 20
-4.165785047743055
 30
0.0
 10
8.255818684895832
 20
-4.17763943142361
 30
0.0
 10
8.234415690104166
 20
-4.187201605902777
 30
0.0
 10
8.2130126953125
 20
-4.19677734375
 30
0.0
 10
8.189317491319444
 20
-4.203206380208333
 30
0.0
 10
8.163343641493055
 20
-4.206515842013888
 30
0.0
 10
8.148423936631944
 20
-4.208360460069444
 30
0.0
 10
8.1390380859375
 20
-4.211846245659722
 30
0.0
 10
8.135199652777776
 20
-4.217000325520833
 30
0.0
 10
8.131334092881944
 20
-4.222154405381944
 30
0.0
 10
8.132052951388889
 20
-4.229682074652777
 30
0.0
 10
8.13735622829861
 20
-4.239610460069444
 30
0.0
 10
8.17055935329861
 20
-4.298841688368055
 30
0.0
 10
8.203748914930555
 20
-4.358140733506944
 30
0.0
 10
8.236952039930555
 20
-4.417534722222222
 30
0.0
 10
8.2701416015625
 20
-4.476942274305555
 30
0.0
 10
8.3033447265625
 20
-4.5362548828125
 30
0.0
 10
8.336534288194444
 20
-4.595458984375
 30
0.0
 10
8.340861002604166
 20
-4.603556315104166
 30
0.0
 10
8.342420789930555
 20
-4.611002604166666
 30
0.0
 10
8.341227213541666
 20
-4.617811414930555
 30
0.0
 10
8.340020073784721
 20
-4.624620225694443
 30
0.0
 10
8.336534288194444
 20
-4.630411783854166
 30
0.0
 10
8.330769856770832
 20
-4.635186089409722
 30
0.0
 10
8.324991861979166
 20
-4.639973958333333
 30
0.0
 10
8.31716579861111
 20
-4.643744574652777
 30
0.0
 10
8.307305230034721
 20
-4.646497938368055
 30
0.0
 10
8.297444661458332
 20
-4.649251302083333
 30
0.0
 10
8.286024305555555
 20
-4.650634765625
 30
0.0
 10
8.273030598958332
 20
-4.650634765625
 30
0.0
 10
8.273030598958332
 20
-4.650634765625
 30
0.0
 10
8.1561279296875
 20
-4.650634765625
 30
0.0
 10
8.1561279296875
 20
-4.650634765625
 30
0.0
 10
8.134467230902776
 20
-4.650634765625
 30
0.0
 10
8.115817599826389
 20
-4.645589192708333
 30
0.0
 10
8.100192599826389
 20
-4.635457356770833
 30
0.0
 10
8.084554036458332
 20
-4.625352647569443
 30
0.0
 10
8.07192654079861
 20
-4.612019856770833
 30
0.0
 10
8.062310112847221
 20
-4.595458984375
 30
0.0
 10
8.038248697916666
 20
-4.552802191840277
 30
0.0
 10
8.01430935329861
 20
-4.510050455729166
 30
0.0
 10
7.99050564236111
 20
-4.46719021267361
 30
0.0
 10
7.966688368055555
 20
-4.42434353298611
 30
0.0
 10
7.9425048828125
 20
-4.381401909722222
 30
0.0
 10
7.91796875
 20
-4.338365342881944
 30
0.0
 10
7.91796875
 20
-4.338365342881944
 30
0.0
 10
7.91796875
 20
-4.043755425347222
 30
0.0
 10
7.91796875
 20
-4.043755425347222
 30
0.0
  0
SPLINE
  5
98
330
8D
100
AcDbEntity
  8
Layer 1
100
AcDbSpline
210
0.0
220
0.0
230
1.0
 70
    11
 71
     3
 72
    53
 73
    49
 74
     0
 42
0.0000000001
 43
0.0000000001
 40
0.0
 40
0.0
 40
0.0
 40
0.0
 40
1.0
 40
1.0
 40
1.0
 40
2.0
 40
2.0
 40
2.0
 40
3.0
 40
3.0
 40
3.0
 40
4.0
 40
4.0
 40
4.0
 40
5.0
 40
5.0
 40
5.0
 40
6.0
 40
6.0
 40
6.0
 40
7.0
 40
7.0
 40
7.0
 40
8.0
 40
8.0
 40
8.0
 40
9.0
 40
9.0
 40
9.0
 40
10.0
 40
10.0
 40
10.0
 40
11.0
 40
11.0
 40
11.0
 40
12.0
 40
12.0
 40
12.0
 40
13.0
 40
13.0
 40
13.0
 40
14.0
 40
14.0
 40
14.0
 40
15.0
 40
15.0
 40
15.0
 40
16.0
 40
16.0
 40
16.0
 40
16.0
 10
7.845811631944443
 20
-3.823079427083333
 30
0.0
 10
7.845811631944443
 20
-3.823079427083333
 30
0.0
 10
7.845811631944443
 20
-3.988593207465277
 30
0.0
 10
7.845811631944443
 20
-3.988593207465277
 30
0.0
 10
7.845811631944443
 20
-3.988593207465277
 30
0.0
 10
7.845811631944443
 20
-4.264444986979166
 30
0.0
 10
7.845811631944443
 20
-4.264444986979166
 30
0.0
 10
7.845811631944443
 20
-4.264444986979166
 30
0.0
 10
7.845811631944443
 20
-4.594916449652777
 30
0.0
 10
7.845811631944443
 20
-4.594916449652777
 30
0.0
 10
7.845811631944443
 20
-4.61404079861111
 30
0.0
 10
7.839192708333333
 20
-4.628106011284722
 30
0.0
 10
7.82595486111111
 20
-4.63711208767361
 30
0.0
 10
7.812717013888888
 20
-4.646131727430555
 30
0.0
 10
7.7952880859375
 20
-4.650634765625
 30
0.0
 10
7.773640950520833
 20
-4.650634765625
 30
0.0
 10
7.773640950520833
 20
-4.650634765625
 30
0.0
 10
7.643744574652777
 20
-4.650634765625
 30
0.0
 10
7.643744574652777
 20
-4.650634765625
 30
0.0
 10
7.622083875868055
 20
-4.650634765625
 30
0.0
 10
7.60464138454861
 20
-4.646131727430555
 30
0.0
 10
7.591417100694443
 20
-4.63711208767361
 30
0.0
 10
7.578179253472221
 20
-4.628106011284722
 30
0.0
 10
7.571573893229166
 20
-4.61404079861111
 30
0.0
 10
7.571573893229166
 20
-4.594916449652777
 30
0.0
 10
7.571573893229166
 20
-4.594916449652777
 30
0.0
 10
7.571573893229166
 20
-3.602403428819444
 30
0.0
 10
7.571573893229166
 20
-3.602403428819444
 30
0.0
 10
7.571573893229166
 20
-3.58437771267361
 30
0.0
 10
7.578179253472221
 20
-3.5706787109375
 30
0.0
 10
7.591417100694443
 20
-3.561292860243055
 30
0.0
 10
7.60464138454861
 20
-3.551920572916666
 30
0.0
 10
7.622083875868055
 20
-3.547227647569444
 30
0.0
 10
7.643744574652777
 20
-3.547227647569444
 30
0.0
 10
7.643744574652777
 20
-3.547227647569444
 30
0.0
 10
7.91796875
 20
-3.547227647569444
 30
0.0
 10
7.91796875
 20
-3.547227647569444
 30
0.0
 10
7.91796875
 20
-3.547227647569444
 30
0.0
 10
7.91796875
 20
-3.712741427951388
 30
0.0
 10
7.91796875
 20
-3.712741427951388
 30
0.0
 10
7.896321614583333
 20
-3.712741427951388
 30
0.0
 10
7.878879123263888
 20
-3.71743435329861
 30
0.0
 10
7.865654839409721
 20
-3.726806640625
 30
0.0
 10
7.8524169921875
 20
-3.736178927951388
 30
0.0
 10
7.845811631944443
 20
-3.749891493055555
 30
0.0
 10
7.845811631944443
 20
-3.767903645833333
 30
0.0
 10
7.845811631944443
 20
-3.767903645833333
 30
0.0
 10
7.845811631944443
 20
-3.823079427083333
 30
0.0
 10
7.845811631944443
 20
-3.823079427083333
 30
0.0
  0
ENDBLK
  5
90
330
8D
100
AcDbEntity
  8
0
100
AcDbBlockEnd
  0
ENDSEC
  0
SECTION
  2
ENTITIES
  0
SPLINE
  5
79
330
70
100
AcDbEntity
  8
Layer 1
100
AcDbSpline
210
0.0
220
0.0
230
1.0
 70
     9
 71
     3
 72
    29
 73
    25
 74
     0
 42
0.0000000001
 43
0.0000000001
 40
0.0
 40
0.0
 40
0.0
 40
0.0
 40
1.0
 40
1.0
 40
1.0
 40
2.0
 40
2.0
 40
2.0
 40
3.0
 40
3.0
 40
3.0
 40
4.0
 40
4.0
 40
4.0
 40
5.0
 40
5.0
 40
5.0
 40
6.0
 40
6.0
 40
6.0
 40
7.0
 40
7.0
 40
7.0
 40
8.0
 40
8.0
 40
8.0
 40
8.0
 10
8.549645390070912
 20
-5.5
 30
0.0
 10
8.549645390070912
 20
-5.5
 30
0.0
 10
4.45035460992906
 20
-5.5
 30
0.0
 10
4.45035460992906
 20
-5.5
 30
0.0
 10
4.201630626849237
 20
-5.5
 30
0.0
 10
3.999999999999987
 20
-5.298369373150737
 30
0.0
 10
3.999999999999987
 20
-5.049645390070938
 30
0.0
 10
3.999999999999987
 20
-5.049645390070938
 30
0.0
 10
3.999999999999987
 20
-0.9503546099290739
 30
0.0
 10
3.999999999999987
 20
-0.9503546099290739
 30
0.0
 10
3.999999999999987
 20
-0.7016306268492497
 30
0.0
 10
4.201630626849237
 20
-0.5
 30
0.0
 10
4.45035460992906
 20
-0.5
 30
0.0
 10
4.45035460992906
 20
-0.5
 30
0.0
 10
8.549645390070912
 20
-0.5
 30
0.0
 10
8.549645390070912
 20
-0.5
 30
0.0
 10
8.798369373150737
 20
-0.5
 30
0.0
 10
9.0
 20
-0.7016306268492497
 30
0.0
 10
9.0
 20
-0.9503546099290739
 30
0.0
 10
9.0
 20
-0.9503546099290739
 30
0.0
 10
9.0
 20
-5.049645390070913
 30
0.0
 10
9.0
 20
-5.049645390070913
 30
0.0
 10
9.0
 20
-5.298369373150737
 30
0.0
 10
8.798369373150737
 20
-5.5
 30
0.0
 10
8.549645390070912
 20
-5.5
 30
0.0
  0
HATCH
  5
7A
330
70
100
AcDbEntity
  8
Layer 1
 62
   250
420
  2301728
440
 33554687
100
AcDbHatch
 10
0.0
 20
0.0
 30
0.0
210
0.0
220
0.0
230
1.0
  2
SOLID
 70
     1
 71
     1
 91
        1
 92
        1
 93
        1
 72
     4
 94
        3
 73
     0
 74
     0
 95
       29
 96
       25
 40
0.0
 40
0.0
 40
0.0
 40
0.0
 40
1.0
 40
1.0
 40
1.0
 40
2.0
 40
2.0
 40
2.0
 40
3.0
 40
3.0
 40
3.0
 40
4.0
 40
4.0
 40
4.0
 40
5.0
 40
5.0
 40
5.0
 40
6.0
 40
6.0
 40
6.0
 40
7.0
 40
7.0
 40
7.0
 40
8.0
 40
8.0
 40
8.0
 40
8.0
 10
8.549645390070912
 20
-5.5
 10
8.549645390070912
 20
-5.5
 10
4.45035460992906
 20
-5.5
 10
4.45035460992906
 20
-5.5
 10
4.201630626849237
 20
-5.5
 10
3.999999999999987
 20
-5.298369373150737
 10
3.999999999999987
 20
-5.049645390070938
 10
3.999999999999987
 20
-5.049645390070938
 10
3.999999999999987
 20
-0.9503546099290739
 10
3.999999999999987
 20
-0.9503546099290739
 10
3.999999999999987
 20
-0.7016306268492497
 10
4.201630626849237
 20
-0.5
 10
4.45035460992906
 20
-0.5
 10
4.45035460992906
 20
-0.5
 10
8.549645390070912
 20
-0.5
 10
8.549645390070912
 20
-0.5
 10
8.798369373150737
 20
-0.5
 10
9.0
 20
-0.7016306268492497
 10
9.0
 20
-0.9503546099290739
 10
9.0
 20
-0.9503546099290739
 10
9.0
 20
-5.049645390070913
 10
9.0
 20
-5.049645390070913
 10
9.0
 20
-5.298369373150737
 10
8.798369373150737
 20
-5.5
 10
8.549645390070912
 20
-5.5
 97
        0
 97
        1
330
79
 75
     2
 76
     1
 98
        1
 10
0.0
 20
0.0
450
        0
451
        0
460
0.0
461
0.0
452
        0
462
0.0
453
        0
470

  0
CIRCLE
  5
7B
330
70
100
AcDbEntity
  8
Layer 1
100
AcDbCircle
 10
4.375591016548447
 20
-0.8744089834515843
 30
0.0
 40
0.1089999999999931
  0
CIRCLE
  5
7C
330
70
100
AcDbEntity
  8
Layer 1
100
AcDbCircle
 10
8.626182033096938
 20
-0.8744089834515843
 30
0.0
 40
0.1089999999999978
  0
CIRCLE
  5
7D
330
70
100
AcDbEntity
  8
Layer 1
100
AcDbCircle
 10
8.626182033096938
 20
-5.123000000000002
 30
0.0
 40
0.1089999999999962
  0
CIRCLE
  5
7E
330
70
100
AcDbEntity
  8
Layer 1
100
AcDbCircle
 10
4.375591016548447
 20
-5.122635933806135
 30
0.0
 40
0.109000000000001
  0
SPLINE
  5
7F
330
70
100
AcDbEntity
  8
Layer 1
100
AcDbSpline
210
0.0
220
0.0
230
1.0
 70
     9
 71
     3
 72
    29
 73
    25
 74
     0
 42
0.0000000001
 43
0.0000000001
 40
0.0
 40
0.0
 40
0.0
 40
0.0
 40
1.0
 40
1.0
 40
1.0
 40
2.0
 40
2.0
 40
2.0
 40
3.0
 40
3.0
 40
3.0
 40
4.0
 40
4.0
 40
4.0
 40
5.0
 40
5.0
 40
5.0
 40
6.0
 40
6.0
 40
6.0
 40
7.0
 40
7.0
 40
7.0
 40
8.0
 40
8.0
 40
8.0
 40
8.0
 10
7.834219858155998
 20
-3.3125
 30
0.0
 10
7.834219858155998
 20
-3.3125
 30
0.0
 10
5.167553191489345
 20
-3.3125
 30
0.0
 10
5.167553191489345
 20
-3.3125
 30
0.0
 10
5.075886524822672
 20
-3.3125
 30
0.0
 10
5.000886524822678
 20
-3.23750000000003
 30
0.0
 10
5.000886524822678
 20
-3.145833333333333
 30
0.0
 10
5.000886524822678
 20
-3.145833333333333
 30
0.0
 10
5.000886524822678
 20
-2.854166666666666
 30
0.0
 10
5.000886524822678
 20
-2.854166666666666
 30
0.0
 10
5.000886524822678
 20
-2.762499999999994
 30
0.0
 10
5.075886524822672
 20
-2.6875
 30
0.0
 10
5.167553191489345
 20
-2.6875
 30
0.0
 10
5.167553191489345
 20
-2.6875
 30
0.0
 10
7.834219858155998
 20
-2.6875
 30
0.0
 10
7.834219858155998
 20
-2.6875
 30
0.0
 10
7.925886524822695
 20
-2.6875
 30
0.0
 10
8.000886524822664
 20
-2.762499999999994
 30
0.0
 10
8.000886524822664
 20
-2.854166666666666
 30
0.0
 10
8.000886524822664
 20
-2.854166666666666
 30
0.0
 10
8.000886524822664
 20
-3.145833333333333
 30
0.0
 10
8.000886524822664
 20
-3.145833333333333
 30
0.0
 10
8.000886524822664
 20
-3.23750000000003
 30
0.0
 10
7.925886524822695
 20
-3.3125
 30
0.0
 10
7.834219858155998
 20
-3.3125
 30
0.0
  0
INSERT
  5
81
330
70
100
AcDbEntity
  8
Layer 1
100
AcDbBlockReference
  2
Block_0
 10
0.0
 20
0.0
 30
0.0
  0
INSERT
  5
8E
330
70
100
AcDbEntity
  8
Layer 1
100
AcDbBlockReference
  2
Block_1
 10
0.0
 20
0.0
 30
0.0
  0
ENDSEC
  0
SECTION
  2
OBJECTS
  0
DICTIONARY
  5
C
330
0
100
AcDbDictionary
281
     1
  3
ACAD_COLOR
350
63
  3
ACAD_DETAILVIEWSTYLE
350
6A
  3
ACAD_GROUP
350
D
  3
ACAD_LAYOUT
350
62
  3
ACAD_MATERIAL
350
10
  3
ACAD_MLEADERSTYLE
350
66
  3
ACAD_MLINESTYLE
350
5F
  3
ACAD_PLOTSETTINGS
350
61
  3
ACAD_PLOTSTYLENAME
350
E
  3
ACAD_SCALELIST
350
42
  3
ACAD_SECTIONVIEWSTYLE
350
68
  3
ACAD_TABLESTYLE
350
64
  3
ACAD_VISUALSTYLE
350
29
  3
ACDB_RECOMPOSE_DATA
350
A2
  3
AcDbVariableDictionary
350
9A
  0
DICTIONARY
  5
63
102
{ACAD_REACTORS
330
C
102
}
330
C
100
AcDbDictionary
281
     1
  0
DICTIONARY
  5
6A
102
{ACAD_REACTORS
330
C
102
}
330
C
100
AcDbDictionary
281
     1
  3
Imperial24
350
6B
  0
DICTIONARY
  5
D
102
{ACAD_REACTORS
330
C
102
}
330
C
100
AcDbDictionary
281
     1
  0
DICTIONARY
  5
62
102
{ACAD_REACTORS
330
C
102
}
330
C
100
AcDbDictionary
281
     1
  3
Layout1
350
6F
  3
Layout2
350
77
  3
Model
350
73
  0
DICTIONARY
  5
10
102
{ACAD_REACTORS
330
C
102
}
330
C
100
AcDbDictionary
281
     1
  3
ByBlock
350
19
  3
ByLayer
350
11
  3
Global
350
21
  0
DICTIONARY
  5
66
102
{ACAD_REACTORS
330
C
102
}
330
C
100
AcDbDictionary
281
     1
  3
Standard
350
67
  0
DICTIONARY
  5
5F
102
{ACAD_REACTORS
330
C
102
}
330
C
100
AcDbDictionary
281
     1
  3
Standard
350
60
  0
DICTIONARY
  5
61
102
{ACAD_REACTORS
330
C
102
}
330
C
100
AcDbDictionary
281
     1
  0
ACDBDICTIONARYWDFLT
  5
E
102
{ACAD_REACTORS
330
C
102
}
330
C
100
AcDbDictionary
281
     1
  3
Normal
350
F
100
AcDbDictionaryWithDefault
340
F
  0
DICTIONARY
  5
42
102
{ACAD_REACTORS
330
C
102
}
330
C
100
AcDbDictionary
281
     1
  3
A0
350
43
  3
A1
350
44
  3
A2
350
45
  3
A3
350
46
  3
A4
350
47
  3
A5
350
48
  3
A6
350
49
  3
A7
350
4A
  3
A8
350
4B
  3
A9
350
4C
  3
B0
350
4D
  3
B1
350
4E
  3
B2
350
4F
  3
B3
350
50
  3
B4
350
51
  3
B5
350
52
  3
B6
350
53
  0
DICTIONARY
  5
68
102
{ACAD_REACTORS
330
C
102
}
330
C
100
AcDbDictionary
281
     1
  3
Imperial24
350
69
  0
DICTIONARY
  5
64
102
{ACAD_REACTORS
330
C
102
}
330
C
100
AcDbDictionary
281
     1
  3
Standard
350
65
  0
DICTIONARY
  5
29
102
{ACAD_REACTORS
330
C
102
}
330
C
100
AcDbDictionary
281
     1
  3
2dWireframe
350
2F
  3
Basic
350
2E
  3
Brighten
350
35
  3
ColorChange
350
39
  3
Conceptual
350
32
  3
Dim
350
34
  3
EdgeColorOff
350
41
  3
Facepattern
350
38
  3
Flat
350
2A
  3
FlatWithEdges
350
2B
  3
Gouraud
350
2C
  3
GouraudWithEdges
350
2D
  3
Hidden
350
31
  3
JitterOff
350
3F
  3
Linepattern
350
37
  3
OverhangOff
350
40
  3
Realistic
350
33
  3
Shaded
350
3E
  3
Shaded with edges
350
3D
  3
Shades of Gray
350
3A
  3
Sketchy
350
3B
  3
Thicken
350
36
  3
Wireframe
350
30
  3
X-Ray
350
3C
  0
XRECORD
  5
A2
102
{ACAD_REACTORS
330
C
102
}
330
C
100
AcDbXrecord
280
     1
 90
        1
330
65
  0
DICTIONARY
  5
9A
102
{ACAD_REACTORS
330
C
102
}
330
C
100
AcDbDictionary
281
     1
  3
CANNOSCALE
350
9F
  3
CMLEADERSTYLE
350
9C
  3
CTABLESTYLE
350
9B
  3
CVIEWDETAILSTYLE
350
9D
  3
CVIEWSECTIONSTYLE
350
9E
  0
ACDBDETAILVIEWSTYLE
  5
6B
102
{ACAD_REACTORS
330
6A
102
}
330
6A
100
AcDbModelDocViewStyle
 70
     0
  3
Imperial24
290
     1
300
Imperial24
 90
        0
100
AcDbDetailViewStyle
 70
     0
 71
     0
 90
        3
 71
     1
340
55
 62
   256
 40
0.24
340
0
 62
   256
 40
0.24
300

 40
0.36
280
     3
 71
     2
340
5D
 90
       25
 62
   256
 71
     3
340
55
 62
   256
 40
0.24
 90
        1
 40
0.75
 90
        1
300
%<\AcVar ViewType \f "%tc1">% %<\AcVar ViewDetailId>%\PSCALE %<\AcVar ViewScale \f "%sn">%
 71
     4
340
5D
 90
       25
 62
   256
340
5D
 90
       25
 62
   256
280
     0
  0
LAYOUT
  5
6F
102
{ACAD_REACTORS
330
62
102
}
330
62
100
AcDbPlotSettings
  1

  2

  4

  6

 40
0.0
 41
0.0
 42
0.0
 43
0.0
 44
0.0
 45
0.0
 46
0.0
 47
0.0
 48
0.0
 49
0.0
140
0.0
141
0.0
142
1.0
143
1.0
 70
   688
 72
     0
 73
     0
 74
     5
  7

 75
    16
147
1.0
 76
     0
 77
     2
 78
   300
148
0.0
149
0.0
100
AcDbLayout
  1
Layout1
 70
     1
 71
     1
 10
0.0
 20
0.0
 11
12.0
 21
9.0
 12
0.0
 22
0.0
 32
0.0
 14
0.0
 24
0.0
 34
0.0
 15
0.0
 25
0.0
 35
0.0
146
0.0
 13
0.0
 23
0.0
 33
0.0
 16
1.0
 26
0.0
 36
0.0
 17
0.0
 27
1.0
 37
0.0
 76
     0
330
6C
  0
LAYOUT
  5
77
102
{ACAD_REACTORS
330
62
102
}
330
62
100
AcDbPlotSettings
  1

  2

  4

  6

 40
0.0
 41
0.0
 42
0.0
 43
0.0
 44
0.0
 45
0.0
 46
0.0
 47
0.0
 48
0.0
 49
0.0
140
0.0
141
0.0
142
1.0
143
1.0
 70
   688
 72
     0
 73
     0
 74
     5
  7

 75
    16
147
1.0
 76
     0
 77
     2
 78
   300
148
0.0
149
0.0
100
AcDbLayout
  1
Layout2
 70
     1
 71
     2
 10
0.0
 20
0.0
 11
12.0
 21
9.0
 12
0.0
 22
0.0
 32
0.0
 14
0.0
 24
0.0
 34
0.0
 15
0.0
 25
0.0
 35
0.0
146
0.0
 13
0.0
 23
0.0
 33
0.0
 16
1.0
 26
0.0
 36
0.0
 17
0.0
 27
1.0
 37
0.0
 76
     0
330
74
  0
LAYOUT
  5
73
102
{ACAD_REACTORS
330
62
102
}
330
62
100
AcDbPlotSettings
  1

  2

  4

  6

 40
0.0
 41
0.0
 42
0.0
 43
0.0
 44
0.0
 45
0.0
 46
0.0
 47
0.0
 48
0.0
 49
0.0
140
0.0
141
0.0
142
1.0
143
1.0
 70
  1712
 72
     0
 73
     0
 74
     0
  7

 75
     0
147
1.0
 76
     0
 77
     2
 78
   300
148
0.0
149
0.0
100
AcDbLayout
  1
Model
 70
     1
 71
     0
 10
0.0
 20
0.0
 11
12.0
 21
9.0
 12
0.0
 22
0.0
 32
0.0
 14
0.0
 24
0.0
 34
0.0
 15
0.0
 25
0.0
 35
0.0
146
0.0
 13
0.0
 23
0.0
 33
0.0
 16
1.0
 26
0.0
 36
0.0
 17
0.0
 27
1.0
 37
0.0
 76
     0
330
70
  0
MATERIAL
  5
19
102
{ACAD_XDICTIONARY
360
1A
102
}
102
{ACAD_REACTORS
330
10
102
}
330
10
100
AcDbMaterial
  1
ByBlock
 72
     0
 43
0.0208333333333333
 43
0.0
 43
0.0
 43
0.0
 43
0.0
 43
0.0208333333333333
 43
0.0
 43
0.0
 43
0.0
 43
0.0
 43
1.0
 43
0.0
 43
0.0
 43
0.0
 43
0.0
 43
1.0
 77
     0
 47
0.0208333333333333
 47
0.0
 47
0.0
 47
0.0
 47
0.0
 47
0.0208333333333333
 47
0.0
 47
0.0
 47
0.0
 47
0.0
 47
1.0
 47
0.0
 47
0.0
 47
0.0
 47
0.0
 47
1.0
171
     0
 49
0.0208333333333333
 49
0.0
 49
0.0
 49
0.0
 49
0.0
 49
0.0208333333333333
 49
0.0
 49
0.0
 49
0.0
 49
0.0
 49
1.0
 49
0.0
 49
0.0
 49
0.0
 49
0.0
 49
1.0
175
     0
142
0.0208333333333333
142
0.0
142
0.0
142
0.0
142
0.0
142
0.0208333333333333
142
0.0
142
0.0
142
0.0
142
0.0
142
1.0
142
0.0
142
0.0
142
0.0
142
0.0
142
1.0
179
     0
144
0.0208333333333333
144
0.0
144
0.0
144
0.0
144
0.0
144
0.0208333333333333
144
0.0
144
0.0
144
0.0
144
0.0
144
1.0
144
0.0
144
0.0
144
0.0
144
0.0
144
1.0
147
0.0208333333333333
147
0.0
147
0.0
147
0.0
147
0.0
147
0.0208333333333333
147
0.0
147
0.0
147
0.0
147
0.0
147
1.0
147
0.0
147
0.0
147
0.0
147
0.0
147
1.0
  0
MATERIAL
  5
11
102
{ACAD_XDICTIONARY
360
12
102
}
102
{ACAD_REACTORS
330
10
102
}
330
10
100
AcDbMaterial
  1
ByLayer
 72
     0
 43
0.0208333333333333
 43
0.0
 43
0.0
 43
0.0
 43
0.0
 43
0.0208333333333333
 43
0.0
 43
0.0
 43
0.0
 43
0.0
 43
1.0
 43
0.0
 43
0.0
 43
0.0
 43
0.0
 43
1.0
 77
     0
 47
0.0208333333333333
 47
0.0
 47
0.0
 47
0.0
 47
0.0
 47
0.0208333333333333
 47
0.0
 47
0.0
 47
0.0
 47
0.0
 47
1.0
 47
0.0
 47
0.0
 47
0.0
 47
0.0
 47
1.0
171
     0
 49
0.0208333333333333
 49
0.0
 49
0.0
 49
0.0
 49
0.0
 49
0.0208333333333333
 49
0.0
 49
0.0
 49
0.0
 49
0.0
 49
1.0
 49
0.0
 49
0.0
 49
0.0
 49
0.0
 49
1.0
175
     0
142
0.0208333333333333
142
0.0
142
0.0
142
0.0
142
0.0
142
0.0208333333333333
142
0.0
142
0.0
142
0.0
142
0.0
142
1.0
142
0.0
142
0.0
142
0.0
142
0.0
142
1.0
179
     0
144
0.0208333333333333
144
0.0
144
0.0
144
0.0
144
0.0
144
0.0208333333333333
144
0.0
144
0.0
144
0.0
144
0.0
144
1.0
144
0.0
144
0.0
144
0.0
144
0.0
144
1.0
147
0.0208333333333333
147
0.0
147
0.0
147
0.0
147
0.0
147
0.0208333333333333
147
0.0
147
0.0
147
0.0
147
0.0
147
1.0
147
0.0
147
0.0
147
0.0
147
0.0
147
1.0
  0
MATERIAL
  5
21
102
{ACAD_XDICTIONARY
360
22
102
}
102
{ACAD_REACTORS
330
10
102
}
330
10
100
AcDbMaterial
  1
Global
 72
     0
 43
0.0208333333333333
 43
0.0
 43
0.0
 43
0.0
 43
0.0
 43
0.0208333333333333
 43
0.0
 43
0.0
 43
0.0
 43
0.0
 43
1.0
 43
0.0
 43
0.0
 43
0.0
 43
0.0
 43
1.0
 77
     0
 47
0.0208333333333333
 47
0.0
 47
0.0
 47
0.0
 47
0.0
 47
0.0208333333333333
 47
0.0
 47
0.0
 47
0.0
 47
0.0
 47
1.0
 47
0.0
 47
0.0
 47
0.0
 47
0.0
 47
1.0
171
     0
 49
0.0208333333333333
 49
0.0
 49
0.0
 49
0.0
 49
0.0
 49
0.0208333333333333
 49
0.0
 49
0.0
 49
0.0
 49
0.0
 49
1.0
 49
0.0
 49
0.0
 49
0.0
 49
0.0
 49
1.0
175
     0
142
0.0208333333333333
142
0.0
142
0.0
142
0.0
142
0.0
142
0.0208333333333333
142
0.0
142
0.0
142
0.0
142
0.0
142
1.0
142
0.0
142
0.0
142
0.0
142
0.0
142
1.0
179
     0
144
0.0208333333333333
144
0.0
144
0.0
144
0.0
144
0.0
144
0.0208333333333333
144
0.0
144
0.0
144
0.0
144
0.0
144
1.0
144
0.0
144
0.0
144
0.0
144
0.0
144
1.0
147
0.0208333333333333
147
0.0
147
0.0
147
0.0
147
0.0
147
0.0208333333333333
147
0.0
147
0.0
147
0.0
147
0.0
147
1.0
147
0.0
147
0.0
147
0.0
147
0.0
147
1.0
  0
MLEADERSTYLE
  5
67
102
{ACAD_REACTORS
330
66
102
}
330
66
100
AcDbMLeaderStyle
179
     2
170
     2
171
     1
172
     0
 90
        2
 40
0.0
 41
0.0
173
     1
 91
-1056964608
340
5B
 92
       -2
290
     1
 42
0.09
291
     1
 43
0.36
  3
Standard
 44
0.18
300

342
55
174
     1
178
     6
175
     1
176
     0
 93
-1056964608
 45
0.18
292
     0
297
     0
 46
0.18
 94
-1056964608
 47
1.0
 49
1.0
140
1.0
293
     1
141
0.0
294
     1
177
     0
142
1.0
295
     1
296
     0
143
0.125
271
     0
272
     9
273
     9
298
     1
  0
MLINESTYLE
  5
60
102
{ACAD_REACTORS
330
5F
102
}
330
5F
100
AcDbMlineStyle
  2
STANDARD
 70
     0
  3

 62
   256
 51
90.0
 52
90.0
 71
     2
 49
0.5
 62
   256
  6
BYLAYER
 49
-0.5
 62
   256
  6
BYLAYER
  0
ACDBPLACEHOLDER
  5
F
102
{ACAD_REACTORS
330
E
102
}
330
E
  0
SCALE
  5
43
102
{ACAD_REACTORS
330
42
102
}
330
42
100
AcDbScale
 70
     0
300
1:1
140
1.0
141
1.0
290
     1
  0
SCALE
  5
44
102
{ACAD_REACTORS
330
42
102
}
330
42
100
AcDbScale
 70
     0
300
1/128" = 1'-0"
140
0.0078125
141
12.0
290
     0
  0
SCALE
  5
45
102
{ACAD_REACTORS
330
42
102
}
330
42
100
AcDbScale
 70
     0
300
1/64" = 1'-0"
140
0.015625
141
12.0
290
     0
  0
SCALE
  5
46
102
{ACAD_REACTORS
330
42
102
}
330
42
100
AcDbScale
 70
     0
300
1/32" = 1'-0"
140
0.03125
141
12.0
290
     0
  0
SCALE
  5
47
102
{ACAD_REACTORS
330
42
102
}
330
42
100
AcDbScale
 70
     0
300
1/16" = 1'-0"
140
0.0625
141
12.0
290
     0
  0
SCALE
  5
48
102
{ACAD_REACTORS
330
42
102
}
330
42
100
AcDbScale
 70
     0
300
3/32" = 1'-0"
140
0.09375
141
12.0
290
     0
  0
SCALE
  5
49
102
{ACAD_REACTORS
330
42
102
}
330
42
100
AcDbScale
 70
     0
300
1/8" = 1'-0"
140
0.125
141
12.0
290
     0
  0
SCALE
  5
4A
102
{ACAD_REACTORS
330
42
102
}
330
42
100
AcDbScale
 70
     0
300
3/16" = 1'-0"
140
0.1875
141
12.0
290
     0
  0
SCALE
  5
4B
102
{ACAD_REACTORS
330
42
102
}
330
42
100
AcDbScale
 70
     0
300
1/4" = 1'-0"
140
0.25
141
12.0
290
     0
  0
SCALE
  5
4C
102
{ACAD_REACTORS
330
42
102
}
330
42
100
AcDbScale
 70
     0
300
3/8" = 1'-0"
140
0.375
141
12.0
290
     0
  0
SCALE
  5
4D
102
{ACAD_REACTORS
330
42
102
}
330
42
100
AcDbScale
 70
     0
300
1/2" = 1'-0"
140
0.5
141
12.0
290
     0
  0
SCALE
  5
4E
102
{ACAD_REACTORS
330
42
102
}
330
42
100
AcDbScale
 70
     0
300
3/4" = 1'-0"
140
0.75
141
12.0
290
     0
  0
SCALE
  5
4F
102
{ACAD_REACTORS
330
42
102
}
330
42
100
AcDbScale
 70
     0
300
1" = 1'-0"
140
1.0
141
12.0
290
     0
  0
SCALE
  5
50
102
{ACAD_REACTORS
330
42
102
}
330
42
100
AcDbScale
 70
     0
300
1-1/2" = 1'-0"
140
1.5
141
12.0
290
     0
  0
SCALE
  5
51
102
{ACAD_REACTORS
330
42
102
}
330
42
100
AcDbScale
 70
     0
300
3" = 1'-0"
140
3.0
141
12.0
290
     0
  0
SCALE
  5
52
102
{ACAD_REACTORS
330
42
102
}
330
42
100
AcDbScale
 70
     0
300
6" = 1'-0"
140
6.0
141
12.0
290
     0
  0
SCALE
  5
53
102
{ACAD_REACTORS
330
42
102
}
330
42
100
AcDbScale
 70
     0
300
1'-0" = 1'-0"
140
12.0
141
12.0
290
     0
  0
ACDBSECTIONVIEWSTYLE
  5
69
102
{ACAD_REACTORS
330
68
102
}
330
68
100
AcDbModelDocViewStyle
 70
     0
  3
Imperial24
290
     1
300
Imperial24
 90
        0
100
AcDbSectionViewStyle
 70
     0
 71
     0
 90
       78
 71
     1
340
55
 62
   256
 40
0.24
340
0
340
0
 62
   256
 40
0.24
300
I, O, Q, S, X, Z
 40
0.48
 90
        3
 40
0.18
 90
        1
 71
     2
340
5D
 90
       25
 62
   256
340
5D
 90
       50
 62
   256
 40
0.24
 40
0.0
 40
0.24
 71
     3
340
55
 62
   256
 40
0.24
 90
        1
 40
0.75
 90
        1
300
%<\AcVar ViewType \f "%tc1">% %<\AcVar ViewSectionStartId>%-%<\AcVar ViewSectionEndId>%\PSCALE %<\AcVar ViewScale \f "%sn">%
 71
     4
 62
   256
 62
   257
300
ANSI31
 40
1.0
 90
        0
290
     0
290
     0
 90
        6
 40
0.0
 40
1.570796326794896
 40
0.2617993877991494
 40
1.308996938995747
 40
-0.2617993877991494
 40
1.832595714594046
  0
TABLESTYLE
  5
65
102
{ACAD_XDICTIONARY
360
A0
102
}
102
{ACAD_REACTORS
330
64
102
}
330
64
100
AcDbTableStyle
280
     0
  3
Standard
 70
     0
 71
     0
 40
0.06
 41
0.06
280
     0
281
     0
  7
Standard
140
0.18
170
     2
 62
     0
 63
     7
283
     0
 90
      512
 91
        0
  1

274
    -2
284
     1
 64
     0
275
    -2
285
     1
 65
     0
276
    -2
286
     1
 66
     0
277
    -2
287
     1
 67
     0
278
    -2
288
     1
 68
     0
279
    -2
289
     1
 69
     0
  7
Standard
140
0.25
170
     5
 62
     0
 63
     7
283
     0
 90
      512
 91
        0
  1

274
    -2
284
     1
 64
     0
275
    -2
285
     1
 65
     0
276
    -2
286
     1
 66
     0
277
    -2
287
     1
 67
     0
278
    -2
288
     1
 68
     0
279
    -2
289
     1
 69
     0
  7
Standard
140
0.18
170
     5
 62
     0
 63
     7
283
     0
 90
      512
 91
        0
  1

274
    -2
284
     1
 64
     0
275
    -2
285
     1
 65
     0
276
    -2
286
     1
 66
     0
277
    -2
287
     1
 67
     0
278
    -2
288
     1
 68
     0
279
    -2
289
     1
 69
     0
  0
VISUALSTYLE
  5
2F
102
{ACAD_REACTORS
330
29
102
}
330
29
100
AcDbVisualStyle
  2
2dWireframe
 70
     4
177
     3
291
     0
 70
    58
 90
        0
176
     1
 90
        2
176
     1
 90
        0
176
     1
 90
        0
176
     1
 40
0.6
176
     1
 40
30.0
176
     1
 62
     7
420
 16777215
176
     1
 90
        1
176
     1
 90
        4
176
     1
 62
     7
176
     1
 62
   257
176
     1
 90
        1
176
     1
 90
        1
176
     1
 40
1.0
176
     1
 90
        0
176
     1
 62
   257
176
     1
 40
1.0
176
     1
 90
        1
176
     1
 90
        6
176
     1
 90
        2
176
     1
 62
     7
176
     1
 90
        5
176
     1
 90
        0
176
     1
 90
        0
176
     1
290
     0
176
     1
 90
        1
176
     1
 40
0.0
176
     1
 90
        0
176
     1
290
     1
176
     1
290
     1
176
     1
290
     0
176
     1
290
     0
176
     1
290
     0
176
     1
290
     0
176
     1
290
     0
176
     1
290
     0
176
     1
290
     0
176
     1
 90
       50
176
     1
 40
0.0
176
     1
 40
1.0
176
     1
 90
        0
176
     1
 62
    18
420
        0
176
     1
 90
       50
176
     1
 90
        3
176
     1
 62
     5
420
      255
176
     1
290
     0
176
     1
 90
       50
176
     1
 90
       50
176
     1
 90
       50
176
     1
290
     0
176
     1
 90
       50
176
     1
 62
   256
176
     0
 40
1.0
176
     0
 90
        2
176
     1
  1
strokes_ogs.tif
176
     1
290
     0
176
     1
 40
1.0
176
     1
 40
1.0
176
     1
  0
VISUALSTYLE
  5
2E
102
{ACAD_REACTORS
330
29
102
}
330
29
100
AcDbVisualStyle
  2
Basic
 70
     7
177
     3
291
     1
 70
    58
 90
        1
176
     1
 90
        0
176
     1
 90
        1
176
     1
 90
        0
176
     1
 40
0.6
176
     1
 40
30.0
176
     1
 62
     7
420
 16777215
176
     1
 90
        0
176
     1
 90
        4
176
     1
 62
     7
176
     1
 62
   257
176
     1
 90
        1
176
     1
 90
        1
176
     1
 40
1.0
176
     1
 90
        8
176
     1
 62
     7
176
     1
 40
1.0
176
     1
 90
        1
176
     1
 90
        6
176
     1
 90
        2
176
     1
 62
     7
176
     1
 90
        5
176
     1
 90
        0
176
     1
 90
        0
176
     1
290
     0
176
     1
 90
        1
176
     1
 40
0.0
176
     1
 90
        0
176
     1
290
     0
176
     1
290
     1
176
     1
290
     1
176
     1
290
     0
176
     1
290
     0
176
     1
290
     0
176
     1
290
     0
176
     1
290
     0
176
     1
290
     0
176
     1
 90
       50
176
     1
 40
0.0
176
     1
 40
1.0
176
     1
 90
        0
176
     1
 62
    18
420
        0
176
     1
 90
       50
176
     1
 90
        3
176
     1
 62
     5
420
      255
176
     1
290
     0
176
     1
 90
       50
176
     1
 90
       50
176
     1
 90
       50
176
     1
290
     0
176
     1
 90
       50
176
     1
 62
   256
176
     0
 40
1.0
176
     0
 90
        2
176
     1
  1
strokes_ogs.tif
176
     1
290
     0
176
     1
 40
1.0
176
     1
 40
1.0
176
     1
  0
VISUALSTYLE
  5
35
102
{ACAD_REACTORS
330
29
102
}
330
29
100
AcDbVisualStyle
  2
Brighten
 70
    12
177
     3
291
     1
 70
    58
 90
        2
176
     1
 90
        2
176
     1
 90
        0
176
     1
 90
        0
176
     1
 40
0.6
176
     1
 40
30.0
176
     1
 62
     7
420
 16777215
176
     1
 90
        1
176
     1
 90
        4
176
     1
 62
     7
176
     1
 62
   257
176
     1
 90
        1
176
     1
 90
        1
176
     1
 40
1.0
176
     1
 90
        8
176
     1
 62
     7
176
     1
 40
1.0
176
     1
 90
        1
176
     1
 90
        6
176
     1
 90
        2
176
     1
 62
     7
176
     1
 90
        5
176
     1
 90
        0
176
     1
 90
        0
176
     1
290
     0
176
     1
 90
        1
176
     1
 40
50.0
176
     1
 90
        0
176
     1
290
     0
176
     1
290
     1
176
     1
290
     1
176
     1
290
     0
176
     1
290
     0
176
     1
290
     0
176
     1
290
     0
176
     1
290
     0
176
     1
290
     0
176
     1
 90
       50
176
     1
 40
0.0
176
     1
 40
1.0
176
     1
 90
        0
176
     1
 62
    18
420
        0
176
     1
 90
       50
176
     1
 90
        3
176
     1
 62
     5
420
      255
176
     1
290
     0
176
     1
 90
       50
176
     1
 90
       50
176
     1
 90
       50
176
     1
290
     0
176
     1
 90
       50
176
     1
 62
   256
176
     0
 40
1.0
176
     0
 90
        2
176
     1
  1
strokes_ogs.tif
176
     1
290
     0
176
     1
 40
1.0
176
     1
 40
1.0
176
     1
  0
VISUALSTYLE
  5
39
102
{ACAD_REACTORS
330
29
102
}
330
29
100
AcDbVisualStyle
  2
ColorChange
 70
    16
177
     3
291
     1
 70
    58
 90
        2
176
     1
 90
        2
176
     1
 90
        3
176
     1
 90
        0
176
     1
 40
0.6
176
     1
 40
30.0
176
     1
 62
     8
420
  8421504
176
     1
 90
        1
176
     1
 90
        4
176
     1
 62
     7
176
     1
 62
   257
176
     1
 90
        1
176
     1
 90
        1
176
     1
 40
1.0
176
     1
 90
        8
176
     1
 62
     8
420
  8421504
176
     1
 40
1.0
176
     1
 90
        1
176
     1
 90
        6
176
     1
 90
        2
176
     1
 62
     7
176
     1
 90
        5
176
     1
 90
        0
176
     1
 90
        0
176
     1
290
     0
176
     1
 90
        1
176
     1
 40
0.0
176
     1
 90
        0
176
     1
290
     0
176
     1
290
     1
176
     1
290
     1
176
     1
290
     0
176
     1
290
     0
176
     1
290
     0
176
     1
290
     0
176
     1
290
     0
176
     1
290
     0
176
     1
 90
       50
176
     1
 40
0.0
176
     1
 40
1.0
176
     1
 90
        0
176
     1
 62
    18
420
        0
176
     1
 90
       50
176
     1
 90
        3
176
     1
 62
     5
420
      255
176
     1
290
     0
176
     1
 90
       50
176
     1
 90
       50
176
     1
 90
       50
176
     1
290
     0
176
     1
 90
       50
176
     1
 62
   256
176
     0
 40
1.0
176
     0
 90
        2
176
     1
  1
strokes_ogs.tif
176
     1
290
     0
176
     1
 40
1.0
176
     1
 40
1.0
176
     1
  0
VISUALSTYLE
  5
32
102
{ACAD_REACTORS
330
29
102
}
330
29
100
AcDbVisualStyle
  2
Conceptual
 70
     9
177
     3
291
     0
 70
    58
 90
        3
176
     1
 90
        2
176
     1
 90
        0
176
     1
 90
        0
176
     1
 40
0.6
176
     1
 40
30.0
176
     1
 62
     7
420
 16777215
176
     1
 90
        2
176
     1
 90
        2
176
     1
 62
     7
176
     1
 62
   257
176
     1
 90
        1
176
     1
 90
        1
176
     1
 40
179.0
176
     1
 90
        8
176
     1
 62
     7
176
     1
 40
1.0
176
     1
 90
        1
176
     1
 90
        6
176
     1
 90
        2
176
     1
 62
     7
176
     1
 90
        3
176
     1
 90
        0
176
     1
 90
        0
176
     1
290
     0
176
     1
 90
        1
176
     1
 40
0.0
176
     1
 90
        0
176
     1
290
     0
176
     1
290
     1
176
     1
290
     1
176
     1
290
     0
176
     1
290
     0
176
     1
290
     0
176
     1
290
     0
176
     1
290
     0
176
     1
290
     0
176
     1
 90
       50
176
     1
 40
0.0
176
     1
 40
1.0
176
     1
 90
        0
176
     1
 62
    18
420
        0
176
     1
 90
       50
176
     1
 90
        3
176
     1
 62
     5
420
      255
176
     1
290
     0
176
     1
 90
       50
176
     1
 90
       50
176
     1
 90
       50
176
     1
290
     0
176
     1
 90
       50
176
     1
 62
   256
176
     0
 40
1.0
176
     0
 90
        2
176
     1
  1
strokes_ogs.tif
176
     1
290
     0
176
     1
 40
1.0
176
     1
 40
1.0
176
     1
  0
VISUALSTYLE
  5
34
102
{ACAD_REACTORS
330
29
102
}
330
29
100
AcDbVisualStyle
  2
Dim
 70
    11
177
     3
291
     1
 70
    58
 90
        2
176
     1
 90
        2
176
     1
 90
        0
176
     1
 90
        0
176
     1
 40
0.6
176
     1
 40
30.0
176
     1
 62
     7
420
 16777215
176
     1
 90
        1
176
     1
 90
        4
176
     1
 62
     7
176
     1
 62
   257
176
     1
 90
        1
176
     1
 90
        1
176
     1
 40
1.0
176
     1
 90
        8
176
     1
 62
     7
176
     1
 40
1.0
176
     1
 90
        1
176
     1
 90
        6
176
     1
 90
        2
176
     1
 62
     7
176
     1
 90
        5
176
     1
 90
        0
176
     1
 90
        0
176
     1
290
     0
176
     1
 90
        1
176
     1
 40
-50.0
176
     1
 90
        0
176
     1
290
     0
176
     1
290
     1
176
     1
290
     1
176
     1
290
     0
176
     1
290
     0
176
     1
290
     0
176
     1
290
     0
176
     1
290
     0
176
     1
290
     0
176
     1
 90
       50
176
     1
 40
0.0
176
     1
 40
1.0
176
     1
 90
        0
176
     1
 62
    18
420
        0
176
     1
 90
       50
176
     1
 90
        3
176
     1
 62
     5
420
      255
176
     1
290
     0
176
     1
 90
       50
176
     1
 90
       50
176
     1
 90
       50
176
     1
290
     0
176
     1
 90
       50
176
     1
 62
   256
176
     0
 40
1.0
176
     0
 90
        2
176
     1
  1
strokes_ogs.tif
176
     1
290
     0
176
     1
 40
1.0
176
     1
 40
1.0
176
     1
  0
VISUALSTYLE
  5
41
102
{ACAD_REACTORS
330
29
102
}
330
29
100
AcDbVisualStyle
  2
EdgeColorOff
 70
    22
177
     3
291
     1
 70
    58
 90
        2
176
     0
 90
        2
176
     0
 90
        0
176
     0
 90
        0
176
     0
 40
0.6
176
     0
 40
30.0
176
     0
 62
     7
420
 16777215
176
     0
 90
        1
176
     0
 90
        4
176
     0
 62
     7
176
     0
 62
   257
176
     0
 90
        1
176
     0
 90
        1
176
     0
 40
1.0
176
     0
 90
        8
176
     2
 62
     7
176
     0
 40
1.0
176
     0
 90
        1
176
     0
 90
        6
176
     0
 90
        2
176
     0
 62
     7
176
     0
 90
        5
176
     0
 90
        0
176
     0
 90
        0
176
     0
290
     0
176
     0
 90
        1
176
     0
 40
0.0
176
     0
 90
        0
176
     0
290
     0
176
     0
290
     1
176
     0
290
     1
176
     0
290
     0
176
     0
290
     0
176
     0
290
     0
176
     0
290
     0
176
     0
290
     0
176
     0
290
     0
176
     0
 90
       50
176
     0
 40
0.0
176
     0
 40
1.0
176
     0
 90
        0
176
     0
 62
    18
420
        0
176
     0
 90
       50
176
     0
 90
        3
176
     0
 62
     5
420
      255
176
     0
290
     0
176
     0
 90
       50
176
     0
 90
       50
176
     0
 90
       50
176
     0
290
     0
176
     0
 90
       50
176
     0
 62
   256
176
     0
 40
1.0
176
     0
 90
        2
176
     0
  1
strokes_ogs.tif
176
     0
290
     0
176
     0
 40
1.0
176
     0
 40
1.0
176
     0
  0
VISUALSTYLE
  5
38
102
{ACAD_REACTORS
330
29
102
}
330
29
100
AcDbVisualStyle
  2
Facepattern
 70
    15
177
     3
291
     1
 70
    58
 90
        2
176
     1
 90
        2
176
     1
 90
        0
176
     1
 90
        0
176
     1
 40
0.6
176
     1
 40
30.0
176
     1
 62
     7
420
 16777215
176
     1
 90
        1
176
     1
 90
        4
176
     1
 62
     7
176
     1
 62
   257
176
     1
 90
        1
176
     1
 90
        1
176
     1
 40
1.0
176
     1
 90
        8
176
     1
 62
     7
176
     1
 40
1.0
176
     1
 90
        1
176
     1
 90
        6
176
     1
 90
        2
176
     1
 62
     7
176
     1
 90
        5
176
     1
 90
        0
176
     1
 90
        0
176
     1
290
     0
176
     1
 90
        1
176
     1
 40
0.0
176
     1
 90
        0
176
     1
290
     0
176
     1
290
     1
176
     1
290
     1
176
     1
290
     0
176
     1
290
     0
176
     1
290
     0
176
     1
290
     0
176
     1
290
     0
176
     1
290
     0
176
     1
 90
       50
176
     1
 40
0.0
176
     1
 40
1.0
176
     1
 90
        0
176
     1
 62
    18
420
        0
176
     1
 90
       50
176
     1
 90
        3
176
     1
 62
     5
420
      255
176
     1
290
     0
176
     1
 90
       50
176
     1
 90
       50
176
     1
 90
       50
176
     1
290
     0
176
     1
 90
       50
176
     1
 62
   256
176
     0
 40
1.0
176
     0
 90
        2
176
     1
  1
strokes_ogs.tif
176
     1
290
     0
176
     1
 40
1.0
176
     1
 40
1.0
176
     1
  0
VISUALSTYLE
  5
2A
102
{ACAD_REACTORS
330
29
102
}
330
29
100
AcDbVisualStyle
  2
Flat
 70
     0
177
     3
291
     1
 70
    58
 90
        2
176
     1
 90
        1
176
     1
 90
        1
176
     1
 90
        2
176
     1
 40
0.6
176
     1
 40
30.0
176
     1
 62
     7
420
 16777215
176
     1
 90
        0
176
     1
 90
        0
176
     1
 62
     7
176
     1
 62
   257
176
     1
 90
        1
176
     1
 90
        1
176
     1
 40
1.0
176
     1
 90
        8
176
     1
 62
     7
176
     1
 40
1.0
176
     1
 90
        1
176
     1
 90
        6
176
     1
 90
        2
176
     1
 62
     7
176
     1
 90
        5
176
     1
 90
        0
176
     1
 90
        0
176
     1
290
     0
176
     1
 90
       13
176
     1
 40
0.0
176
     1
 90
        0
176
     1
290
     0
176
     1
290
     1
176
     1
290
     1
176
     1
290
     0
176
     1
290
     0
176
     1
290
     0
176
     1
290
     0
176
     1
290
     0
176
     1
290
     0
176
     1
 90
       50
176
     1
 40
0.0
176
     1
 40
1.0
176
     1
 90
        0
176
     1
 62
    18
420
        0
176
     1
 90
       50
176
     1
 90
        3
176
     1
 62
     5
420
      255
176
     1
290
     0
176
     1
 90
       50
176
     1
 90
       50
176
     1
 90
       50
176
     1
290
     0
176
     1
 90
       50
176
     1
 62
   256
176
     0
 40
1.0
176
     0
 90
        2
176
     1
  1
strokes_ogs.tif
176
     1
290
     0
176
     1
 40
1.0
176
     1
 40
1.0
176
     1
  0
VISUALSTYLE
  5
2B
102
{ACAD_REACTORS
330
29
102
}
330
29
100
AcDbVisualStyle
  2
FlatWithEdges
 70
     1
177
     3
291
     1
 70
    58
 90
        2
176
     1
 90
        1
176
     1
 90
        1
176
     1
 90
        2
176
     1
 40
0.6
176
     1
 40
30.0
176
     1
 62
     7
420
 16777215
176
     1
 90
        1
176
     1
 90
        0
176
     1
 62
     7
176
     1
 62
   257
176
     1
 90
        1
176
     1
 90
        1
176
     1
 40
1.0
176
     1
 90
        0
176
     1
 62
   257
176
     1
 40
1.0
176
     1
 90
        1
176
     1
 90
        6
176
     1
 90
        2
176
     1
 62
     7
176
     1
 90
        5
176
     1
 90
        0
176
     1
 90
        0
176
     1
290
     0
176
     1
 90
       13
176
     1
 40
0.0
176
     1
 90
        0
176
     1
290
     0
176
     1
290
     1
176
     1
290
     1
176
     1
290
     0
176
     1
290
     0
176
     1
290
     0
176
     1
290
     0
176
     1
290
     0
176
     1
290
     0
176
     1
 90
       50
176
     1
 40
0.0
176
     1
 40
1.0
176
     1
 90
        0
176
     1
 62
    18
420
        0
176
     1
 90
       50
176
     1
 90
        3
176
     1
 62
     5
420
      255
176
     1
290
     0
176
     1
 90
       50
176
     1
 90
       50
176
     1
 90
       50
176
     1
290
     0
176
     1
 90
       50
176
     1
 62
   256
176
     0
 40
1.0
176
     0
 90
        2
176
     1
  1
strokes_ogs.tif
176
     1
290
     0
176
     1
 40
1.0
176
     1
 40
1.0
176
     1
  0
VISUALSTYLE
  5
2C
102
{ACAD_REACTORS
330
29
102
}
330
29
100
AcDbVisualStyle
  2
Gouraud
 70
     2
177
     3
291
     1
 70
    58
 90
        2
176
     1
 90
        2
176
     1
 90
        1
176
     1
 90
        2
176
     1
 40
0.6
176
     1
 40
30.0
176
     1
 62
     7
420
 16777215
176
     1
 90
        0
176
     1
 90
        0
176
     1
 62
     7
176
     1
 62
   257
176
     1
 90
        1
176
     1
 90
        1
176
     1
 40
1.0
176
     1
 90
        0
176
     1
 62
     7
176
     1
 40
1.0
176
     1
 90
        1
176
     1
 90
        6
176
     1
 90
        2
176
     1
 62
     7
176
     1
 90
        5
176
     1
 90
        0
176
     1
 90
        0
176
     1
290
     0
176
     1
 90
       13
176
     1
 40
0.0
176
     1
 90
        0
176
     1
290
     0
176
     1
290
     1
176
     1
290
     1
176
     1
290
     0
176
     1
290
     0
176
     1
290
     0
176
     1
290
     0
176
     1
290
     0
176
     1
290
     0
176
     1
 90
       50
176
     1
 40
0.0
176
     1
 40
1.0
176
     1
 90
        0
176
     1
 62
    18
420
        0
176
     1
 90
       50
176
     1
 90
        3
176
     1
 62
     5
420
      255
176
     1
290
     0
176
     1
 90
       50
176
     1
 90
       50
176
     1
 90
       50
176
     1
290
     0
176
     1
 90
       50
176
     1
 62
   256
176
     0
 40
1.0
176
     0
 90
        2
176
     1
  1
strokes_ogs.tif
176
     1
290
     0
176
     1
 40
1.0
176
     1
 40
1.0
176
     1
  0
VISUALSTYLE
  5
2D
102
{ACAD_REACTORS
330
29
102
}
330
29
100
AcDbVisualStyle
  2
GouraudWithEdges
 70
     3
177
     3
291
     1
 70
    58
 90
        2
176
     1
 90
        2
176
     1
 90
        1
176
     1
 90
        2
176
     1
 40
0.6
176
     1
 40
30.0
176
     1
 62
     7
420
 16777215
176
     1
 90
        1
176
     1
 90
        0
176
     1
 62
     7
176
     1
 62
   257
176
     1
 90
        1
176
     1
 90
        1
176
     1
 40
1.0
176
     1
 90
        0
176
     1
 62
   257
176
     1
 40
1.0
176
     1
 90
        1
176
     1
 90
        6
176
     1
 90
        2
176
     1
 62
     7
176
     1
 90
        5
176
     1
 90
        0
176
     1
 90
        0
176
     1
290
     0
176
     1
 90
       13
176
     1
 40
0.0
176
     1
 90
        0
176
     1
290
     0
176
     1
290
     1
176
     1
290
     1
176
     1
290
     0
176
     1
290
     0
176
     1
290
     0
176
     1
290
     0
176
     1
290
     0
176
     1
290
     0
176
     1
 90
       50
176
     1
 40
0.0
176
     1
 40
1.0
176
     1
 90
        0
176
     1
 62
    18
420
        0
176
     1
 90
       50
176
     1
 90
        3
176
     1
 62
     5
420
      255
176
     1
290
     0
176
     1
 90
       50
176
     1
 90
       50
176
     1
 90
       50
176
     1
290
     0
176
     1
 90
       50
176
     1
 62
   256
176
     0
 40
1.0
176
     0
 90
        2
176
     1
  1
strokes_ogs.tif
176
     1
290
     0
176
     1
 40
1.0
176
     1
 40
1.0
176
     1
  0
VISUALSTYLE
  5
31
102
{ACAD_REACTORS
330
29
102
}
330
29
100
AcDbVisualStyle
  2
Hidden
 70
     6
177
     3
291
     0
 70
    58
 90
        1
176
     1
 90
        2
176
     1
 90
        2
176
     1
 90
        0
176
     1
 40
0.6
176
     1
 40
30.0
176
     1
 62
     7
420
 16777215
176
     1
 90
        2
176
     1
 90
        2
176
     1
 62
     7
176
     1
 62
   257
176
     1
 90
        2
176
     1
 90
        1
176
     1
 40
40.0
176
     1
 90
        0
176
     1
 62
   257
176
     1
 40
1.0
176
     1
 90
        1
176
     1
 90
        6
176
     1
 90
        2
176
     1
 62
     7
176
     1
 90
        3
176
     1
 90
        0
176
     1
 90
        0
176
     1
290
     0
176
     1
 90
        1
176
     1
 40
0.0
176
     1
 90
        0
176
     1
290
     0
176
     1
290
     1
176
     1
290
     1
176
     1
290
     0
176
     1
290
     0
176
     1
290
     0
176
     1
290
     0
176
     1
290
     0
176
     1
290
     0
176
     1
 90
       50
176
     1
 40
0.0
176
     1
 40
1.0
176
     1
 90
        0
176
     1
 62
    18
420
        0
176
     1
 90
       50
176
     1
 90
        3
176
     1
 62
     5
420
      255
176
     1
290
     0
176
     1
 90
       50
176
     1
 90
       50
176
     1
 90
       50
176
     1
290
     0
176
     1
 90
       50
176
     1
 62
   256
176
     0
 40
1.0
176
     0
 90
        2
176
     1
  1
strokes_ogs.tif
176
     1
290
     0
176
     1
 40
1.0
176
     1
 40
1.0
176
     1
  0
VISUALSTYLE
  5
3F
102
{ACAD_REACTORS
330
29
102
}
330
29
100
AcDbVisualStyle
  2
JitterOff
 70
    20
177
     3
291
     1
 70
    58
 90
        2
176
     0
 90
        2
176
     0
 90
        0
176
     0
 90
        0
176
     0
 40
0.6
176
     0
 40
30.0
176
     0
 62
     7
420
 16777215
176
     0
 90
        1
176
     0
 90
        4
176
     0
 62
     7
176
     0
 62
   257
176
     0
 90
        1
176
     0
 90
        1
176
     0
 40
1.0
176
     0
 90
       10
176
     2
 62
     7
176
     0
 40
1.0
176
     0
 90
        1
176
     0
 90
        6
176
     0
 90
        2
176
     0
 62
     7
176
     0
 90
        5
176
     0
 90
        0
176
     0
 90
        0
176
     0
290
     0
176
     0
 90
        1
176
     0
 40
0.0
176
     0
 90
        0
176
     0
290
     0
176
     0
290
     1
176
     0
290
     1
176
     0
290
     0
176
     0
290
     0
176
     0
290
     0
176
     0
290
     0
176
     0
290
     0
176
     0
290
     0
176
     0
 90
       50
176
     0
 40
0.0
176
     0
 40
1.0
176
     0
 90
        0
176
     0
 62
    18
420
        0
176
     0
 90
       50
176
     0
 90
        3
176
     0
 62
     5
420
      255
176
     0
290
     0
176
     0
 90
       50
176
     0
 90
       50
176
     0
 90
       50
176
     0
290
     0
176
     0
 90
       50
176
     0
 62
   256
176
     0
 40
1.0
176
     0
 90
        2
176
     0
  1
strokes_ogs.tif
176
     0
290
     0
176
     0
 40
1.0
176
     0
 40
1.0
176
     0
  0
VISUALSTYLE
  5
37
102
{ACAD_REACTORS
330
29
102
}
330
29
100
AcDbVisualStyle
  2
Linepattern
 70
    14
177
     3
291
     1
 70
    58
 90
        2
176
     1
 90
        2
176
     1
 90
        0
176
     1
 90
        0
176
     1
 40
0.6
176
     1
 40
30.0
176
     1
 62
     7
420
 16777215
176
     1
 90
        1
176
     1
 90
        4
176
     1
 62
     7
176
     1
 62
   257
176
     1
 90
        7
176
     1
 90
        7
176
     1
 40
1.0
176
     1
 90
        8
176
     1
 62
     7
176
     1
 40
1.0
176
     1
 90
        1
176
     1
 90
        6
176
     1
 90
        2
176
     1
 62
     7
176
     1
 90
        5
176
     1
 90
        0
176
     1
 90
        0
176
     1
290
     0
176
     1
 90
        1
176
     1
 40
0.0
176
     1
 90
        0
176
     1
290
     0
176
     1
290
     1
176
     1
290
     1
176
     1
290
     0
176
     1
290
     0
176
     1
290
     0
176
     1
290
     0
176
     1
290
     0
176
     1
290
     0
176
     1
 90
       50
176
     1
 40
0.0
176
     1
 40
1.0
176
     1
 90
        0
176
     1
 62
    18
420
        0
176
     1
 90
       50
176
     1
 90
        3
176
     1
 62
     5
420
      255
176
     1
290
     0
176
     1
 90
       50
176
     1
 90
       50
176
     1
 90
       50
176
     1
290
     0
176
     1
 90
       50
176
     1
 62
   256
176
     0
 40
1.0
176
     0
 90
        2
176
     1
  1
strokes_ogs.tif
176
     1
290
     0
176
     1
 40
1.0
176
     1
 40
1.0
176
     1
  0
VISUALSTYLE
  5
40
102
{ACAD_REACTORS
330
29
102
}
330
29
100
AcDbVisualStyle
  2
OverhangOff
 70
    21
177
     3
291
     1
 70
    58
 90
        2
176
     0
 90
        2
176
     0
 90
        0
176
     0
 90
        0
176
     0
 40
0.6
176
     0
 40
30.0
176
     0
 62
     7
420
 16777215
176
     0
 90
        1
176
     0
 90
        4
176
     0
 62
     7
176
     0
 62
   257
176
     0
 90
        1
176
     0
 90
        1
176
     0
 40
1.0
176
     0
 90
        9
176
     2
 62
     7
176
     0
 40
1.0
176
     0
 90
        1
176
     0
 90
        6
176
     0
 90
        2
176
     0
 62
     7
176
     0
 90
        5
176
     0
 90
        0
176
     0
 90
        0
176
     0
290
     0
176
     0
 90
        1
176
     0
 40
0.0
176
     0
 90
        0
176
     0
290
     0
176
     0
290
     1
176
     0
290
     1
176
     0
290
     0
176
     0
290
     0
176
     0
290
     0
176
     0
290
     0
176
     0
290
     0
176
     0
290
     0
176
     0
 90
       50
176
     0
 40
0.0
176
     0
 40
1.0
176
     0
 90
        0
176
     0
 62
    18
420
        0
176
     0
 90
       50
176
     0
 90
        3
176
     0
 62
     5
420
      255
176
     0
290
     0
176
     0
 90
       50
176
     0
 90
       50
176
     0
 90
       50
176
     0
290
     0
176
     0
 90
       50
176
     0
 62
   256
176
     0
 40
1.0
176
     0
 90
        2
176
     0
  1
strokes_ogs.tif
176
     0
290
     0
176
     0
 40
1.0
176
     0
 40
1.0
176
     0
  0
VISUALSTYLE
  5
33
102
{ACAD_REACTORS
330
29
102
}
330
29
100
AcDbVisualStyle
  2
Realistic
 70
     8
177
     3
291
     0
 70
    58
 90
        2
176
     1
 90
        3
176
     1
 90
        0
176
     1
 90
        2
176
     1
 40
0.6
176
     1
 40
30.0
176
     1
 62
     7
420
 16777215
176
     1
 90
        0
176
     1
 90
        0
176
     1
 62
     7
176
     1
 62
   257
176
     1
 90
        1
176
     1
 90
        1
176
     1
 40
1.0
176
     1
 90
        8
176
     1
 62
   257
176
     1
 40
1.0
176
     1
 90
        1
176
     1
 90
        6
176
     1
 90
        2
176
     1
 62
     7
176
     1
 90
        3
176
     1
 90
        0
176
     1
 90
        0
176
     1
290
     0
176
     1
 90
       13
176
     1
 40
0.0
176
     1
 90
        0
176
     1
290
     0
176
     1
290
     1
176
     1
290
     1
176
     1
290
     0
176
     1
290
     0
176
     1
290
     0
176
     1
290
     0
176
     1
290
     0
176
     1
290
     0
176
     1
 90
       50
176
     1
 40
0.0
176
     1
 40
1.0
176
     1
 90
        0
176
     1
 62
    18
420
        0
176
     1
 90
       50
176
     1
 90
        3
176
     1
 62
     5
420
      255
176
     1
290
     0
176
     1
 90
       50
176
     1
 90
       50
176
     1
 90
       50
176
     1
290
     0
176
     1
 90
       50
176
     1
 62
   256
176
     0
 40
1.0
176
     0
 90
        2
176
     1
  1
strokes_ogs.tif
176
     1
290
     0
176
     1
 40
1.0
176
     1
 40
1.0
176
     1
  0
VISUALSTYLE
  5
3E
102
{ACAD_REACTORS
330
29
102
}
330
29
100
AcDbVisualStyle
  2
Shaded
 70
    27
177
     3
291
     0
 70
    58
 90
        2
176
     1
 90
        2
176
     1
 90
        1
176
     1
 90
        2
176
     1
 40
0.6
176
     1
 40
30.0
176
     1
 62
     7
420
 16777215
176
     1
 90
        0
176
     1
 90
        4
176
     1
 62
     7
176
     1
 62
   257
176
     1
 90
        1
176
     1
 90
        1
176
     1
 40
1.0
176
     1
 90
        8
176
     1
 62
   257
176
     1
 40
1.0
176
     1
 90
        1
176
     1
 90
        6
176
     1
 90
        2
176
     1
 62
     8
420
  7895160
176
     1
 90
        3
176
     1
 90
        0
176
     1
 90
        0
176
     1
290
     0
176
     1
 90
        5
176
     1
 40
0.0
176
     1
 90
        0
176
     1
290
     0
176
     1
290
     1
176
     1
290
     1
176
     1
290
     0
176
     1
290
     0
176
     1
290
     0
176
     1
290
     0
176
     1
290
     0
176
     1
290
     0
176
     1
 90
       50
176
     1
 40
0.0
176
     1
 40
1.0
176
     1
 90
        0
176
     1
 62
    18
420
        0
176
     1
 90
       50
176
     1
 90
        3
176
     1
 62
     5
420
      255
176
     1
290
     0
176
     1
 90
       50
176
     1
 90
       50
176
     1
 90
       50
176
     1
290
     0
176
     1
 90
       50
176
     1
 62
   256
176
     0
 40
1.0
176
     0
 90
        2
176
     1
  1
strokes_ogs.tif
176
     1
290
     0
176
     1
 40
1.0
176
     1
 40
1.0
176
     1
  0
VISUALSTYLE
  5
3D
102
{ACAD_REACTORS
330
29
102
}
330
29
100
AcDbVisualStyle
  2
Shaded with edges
 70
    26
177
     3
291
     0
 70
    58
 90
        2
176
     1
 90
        2
176
     1
 90
        1
176
     1
 90
        2
176
     1
 40
0.6
176
     1
 40
30.0
176
     1
 62
     7
420
 16777215
176
     1
 90
        1
176
     1
 90
        2
176
     1
 62
     7
176
     1
 62
   257
176
     1
 90
        2
176
     1
 90
        1
176
     1
 40
1.0
176
     1
 90
        8
176
     1
 62
   257
176
     1
 40
1.0
176
     1
 90
        1
176
     1
 90
        6
176
     1
 90
        2
176
     1
 62
     7
176
     1
 90
        3
176
     1
 90
        0
176
     1
 90
        0
176
     1
290
     0
176
     1
 90
        5
176
     1
 40
0.0
176
     1
 90
        0
176
     1
290
     0
176
     1
290
     1
176
     1
290
     1
176
     1
290
     0
176
     1
290
     0
176
     1
290
     0
176
     1
290
     0
176
     1
290
     0
176
     1
290
     0
176
     1
 90
       50
176
     1
 40
0.0
176
     1
 40
1.0
176
     1
 90
        0
176
     1
 62
    18
420
        0
176
     1
 90
       50
176
     1
 90
        3
176
     1
 62
     5
420
      255
176
     1
290
     0
176
     1
 90
       50
176
     1
 90
       50
176
     1
 90
       50
176
     1
290
     0
176
     1
 90
       50
176
     1
 62
   256
176
     0
 40
1.0
176
     0
 90
        2
176
     1
  1
strokes_ogs.tif
176
     1
290
     0
176
     1
 40
1.0
176
     1
 40
1.0
176
     1
  0
VISUALSTYLE
  5
3A
102
{ACAD_REACTORS
330
29
102
}
330
29
100
AcDbVisualStyle
  2
Shades of Gray
 70
    23
177
     3
291
     0
 70
    58
 90
        2
176
     1
 90
        2
176
     1
 90
        3
176
     1
 90
        0
176
     1
 40
0.6
176
     1
 40
30.0
176
     1
 62
     7
420
 16777215
176
     1
 90
        2
176
     1
 90
        2
176
     1
 62
     7
176
     1
 62
     7
176
     1
 90
        1
176
     1
 90
        1
176
     1
 40
40.0
176
     1
 90
        8
176
     1
 62
     7
176
     1
 40
1.0
176
     1
 90
        1
176
     1
 90
        6
176
     1
 90
        2
176
     1
 62
     7
176
     1
 90
        3
176
     1
 90
        0
176
     1
 90
        0
176
     1
290
     0
176
     1
 90
        1
176
     1
 40
0.0
176
     1
 90
        0
176
     1
290
     0
176
     1
290
     1
176
     1
290
     1
176
     1
290
     0
176
     1
290
     0
176
     1
290
     0
176
     1
290
     0
176
     1
290
     0
176
     1
290
     0
176
     1
 90
       50
176
     1
 40
0.0
176
     1
 40
1.0
176
     1
 90
        0
176
     1
 62
    18
420
        0
176
     1
 90
       50
176
     1
 90
        3
176
     1
 62
     5
420
      255
176
     1
290
     0
176
     1
 90
       50
176
     1
 90
       50
176
     1
 90
       50
176
     1
290
     0
176
     1
 90
       50
176
     1
 62
   256
176
     0
 40
1.0
176
     0
 90
        2
176
     1
  1
strokes_ogs.tif
176
     1
290
     0
176
     1
 40
1.0
176
     1
 40
1.0
176
     1
  0
VISUALSTYLE
  5
3B
102
{ACAD_REACTORS
330
29
102
}
330
29
100
AcDbVisualStyle
  2
Sketchy
 70
    24
177
     3
291
     0
 70
    58
 90
        1
176
     1
 90
        2
176
     1
 90
        2
176
     1
 90
        0
176
     1
 40
0.6
176
     1
 40
30.0
176
     1
 62
     7
420
 16777215
176
     1
 90
        2
176
     1
 90
        2
176
     1
 62
     7
176
     1
 62
     7
176
     1
 90
        1
176
     1
 90
        1
176
     1
 40
40.0
176
     1
 90
       11
176
     1
 62
     7
176
     1
 40
1.0
176
     1
 90
        1
176
     1
 90
        6
176
     1
 90
        2
176
     1
 62
     7
176
     1
 90
        6
176
     1
 90
        0
176
     1
 90
        0
176
     1
290
     0
176
     1
 90
        1
176
     1
 40
0.0
176
     1
 90
        0
176
     1
290
     0
176
     1
290
     1
176
     1
290
     1
176
     1
290
     0
176
     1
290
     0
176
     1
290
     0
176
     1
290
     0
176
     1
290
     0
176
     1
290
     0
176
     1
 90
       50
176
     1
 40
0.0
176
     1
 40
1.0
176
     1
 90
        0
176
     1
 62
    18
420
        0
176
     1
 90
       50
176
     1
 90
        3
176
     1
 62
     5
420
      255
176
     1
290
     0
176
     1
 90
       50
176
     1
 90
       50
176
     1
 90
       50
176
     1
290
     0
176
     1
 90
       50
176
     1
 62
   256
176
     0
 40
1.0
176
     0
 90
        2
176
     1
  1
strokes_ogs.tif
176
     1
290
     0
176
     1
 40
1.0
176
     1
 40
1.0
176
     1
  0
VISUALSTYLE
  5
36
102
{ACAD_REACTORS
330
29
102
}
330
29
100
AcDbVisualStyle
  2
Thicken
 70
    13
177
     3
291
     1
 70
    58
 90
        2
176
     1
 90
        2
176
     1
 90
        0
176
     1
 90
        0
176
     1
 40
0.6
176
     1
 40
30.0
176
     1
 62
     7
420
 16777215
176
     1
 90
        1
176
     1
 90
        4
176
     1
 62
     7
176
     1
 62
   257
176
     1
 90
        1
176
     1
 90
        1
176
     1
 40
1.0
176
     1
 90
       12
176
     1
 62
     7
176
     1
 40
1.0
176
     1
 90
        1
176
     1
 90
        6
176
     1
 90
        2
176
     1
 62
     7
176
     1
 90
        5
176
     1
 90
        0
176
     1
 90
        0
176
     1
290
     0
176
     1
 90
        1
176
     1
 40
0.0
176
     1
 90
        0
176
     1
290
     0
176
     1
290
     1
176
     1
290
     1
176
     1
290
     0
176
     1
290
     0
176
     1
290
     0
176
     1
290
     0
176
     1
290
     0
176
     1
290
     0
176
     1
 90
       50
176
     1
 40
0.0
176
     1
 40
1.0
176
     1
 90
        0
176
     1
 62
    18
420
        0
176
     1
 90
       50
176
     1
 90
        3
176
     1
 62
     5
420
      255
176
     1
290
     0
176
     1
 90
       50
176
     1
 90
       50
176
     1
 90
       50
176
     1
290
     0
176
     1
 90
       50
176
     1
 62
   256
176
     0
 40
1.0
176
     0
 90
        2
176
     1
  1
strokes_ogs.tif
176
     1
290
     0
176
     1
 40
1.0
176
     1
 40
1.0
176
     1
  0
VISUALSTYLE
  5
30
102
{ACAD_REACTORS
330
29
102
}
330
29
100
AcDbVisualStyle
  2
Wireframe
 70
     5
177
     3
291
     0
 70
    58
 90
        0
176
     1
 90
        2
176
     1
 90
        0
176
     1
 90
        0
176
     1
 40
0.6
176
     1
 40
30.0
176
     1
 62
     7
420
 16777215
176
     1
 90
        1
176
     1
 90
        4
176
     1
 62
     7
176
     1
 62
   257
176
     1
 90
        1
176
     1
 90
        1
176
     1
 40
1.0
176
     1
 90
        0
176
     1
 62
   257
176
     1
 40
1.0
176
     1
 90
        1
176
     1
 90
        6
176
     1
 90
        2
176
     1
 62
     7
176
     1
 90
        3
176
     1
 90
        0
176
     1
 90
        0
176
     1
290
     0
176
     1
 90
        1
176
     1
 40
0.0
176
     1
 90
        0
176
     1
290
     0
176
     1
290
     1
176
     1
290
     1
176
     1
290
     0
176
     1
290
     0
176
     1
290
     0
176
     1
290
     0
176
     1
290
     0
176
     1
290
     0
176
     1
 90
       50
176
     1
 40
0.0
176
     1
 40
1.0
176
     1
 90
        0
176
     1
 62
    18
420
        0
176
     1
 90
       50
176
     1
 90
        3
176
     1
 62
     5
420
      255
176
     1
290
     0
176
     1
 90
       50
176
     1
 90
       50
176
     1
 90
       50
176
     1
290
     0
176
     1
 90
       50
176
     1
 62
   256
176
     0
 40
1.0
176
     0
 90
        2
176
     1
  1
strokes_ogs.tif
176
     1
290
     0
176
     1
 40
1.0
176
     1
 40
1.0
176
     1
  0
VISUALSTYLE
  5
3C
102
{ACAD_REACTORS
330
29
102
}
330
29
100
AcDbVisualStyle
  2
X-Ray
 70
    25
177
     3
291
     0
 70
    58
 90
        2
176
     1
 90
        2
176
     1
 90
        1
176
     1
 90
        1
176
     1
 40
0.5
176
     1
 40
30.0
176
     1
 62
     7
420
 16777215
176
     1
 90
        1
176
     1
 90
        0
176
     1
 62
     7
176
     1
 62
   257
176
     1
 90
        1
176
     1
 90
        1
176
     1
 40
1.0
176
     1
 90
        8
176
     1
 62
     7
176
     1
 40
1.0
176
     1
 90
        1
176
     1
 90
        6
176
     1
 90
        2
176
     1
 62
     7
176
     1
 90
        3
176
     1
 90
        0
176
     1
 90
        0
176
     1
290
     0
176
     1
 90
       13
176
     1
 40
0.0
176
     1
 90
        0
176
     1
290
     0
176
     1
290
     1
176
     1
290
     1
176
     1
290
     0
176
     1
290
     0
176
     1
290
     0
176
     1
290
     0
176
     1
290
     0
176
     1
290
     0
176
     1
 90
       50
176
     1
 40
0.0
176
     1
 40
1.0
176
     1
 90
        0
176
     1
 62
    18
420
        0
176
     1
 90
       50
176
     1
 90
        3
176
     1
 62
     5
420
      255
176
     1
290
     0
176
     1
 90
       50
176
     1
 90
       50
176
     1
 90
       50
176
     1
290
     0
176
     1
 90
       50
176
     1
 62
   256
176
     0
 40
1.0
176
     0
 90
        2
176
     1
  1
strokes_ogs.tif
176
     1
290
     0
176
     1
 40
1.0
176
     1
 40
1.0
176
     1
  0
DICTIONARYVAR
  5
9F
102
{ACAD_REACTORS
330
9A
102
}
330
9A
100
DictionaryVariables
280
     0
  1
1:1
  0
DICTIONARYVAR
  5
9C
102
{ACAD_REACTORS
330
9A
102
}
330
9A
100
DictionaryVariables
280
     0
  1
STANDARD
  0
DICTIONARYVAR
  5
9B
102
{ACAD_REACTORS
330
9A
102
}
330
9A
100
DictionaryVariables
280
     0
  1
STANDARD
  0
DICTIONARYVAR
  5
9D
102
{ACAD_REACTORS
330
9A
102
}
330
9A
100
DictionaryVariables
280
     0
  1
Imperial24
  0
DICTIONARYVAR
  5
9E
102
{ACAD_REACTORS
330
9A
102
}
330
9A
100
DictionaryVariables
280
     0
  1
Imperial24
  0
DICTIONARY
  5
1A
330
19
100
AcDbDictionary
280
     1
281
     1
  3
BUMPTILE
360
1C
  3
DIFFUSETILE
360
1B
  3
OPACITYTILE
360
1F
  3
REFLECTIONTILE
360
1E
  3
REFRACTIONTILE
360
20
  3
SPECULARTILE
360
1D
  0
DICTIONARY
  5
12
330
11
100
AcDbDictionary
280
     1
281
     1
  3
BUMPTILE
360
14
  3
DIFFUSETILE
360
13
  3
OPACITYTILE
360
17
  3
REFLECTIONTILE
360
16
  3
REFRACTIONTILE
360
18
  3
SPECULARTILE
360
15
  0
DICTIONARY
  5
22
330
21
100
AcDbDictionary
280
     1
281
     1
  3
BUMPTILE
360
24
  3
DIFFUSETILE
360
23
  3
OPACITYTILE
360
27
  3
REFLECTIONTILE
360
26
  3
REFRACTIONTILE
360
28
  3
SPECULARTILE
360
25
  0
DICTIONARY
  5
A0
330
65
100
AcDbDictionary
280
     1
281
     1
  3
ACAD_ROUNDTRIP_2008_TABLESTYLE_CELLSTYLEMAP
360
A1
  0
XRECORD
  5
1C
102
{ACAD_REACTORS
330
1A
102
}
330
1A
100
AcDbXrecord
280
     1
270
     1
271
     1
  0
XRECORD
  5
1B
102
{ACAD_REACTORS
330
1A
102
}
330
1A
100
AcDbXrecord
280
     1
270
     1
271
     1
  0
XRECORD
  5
1F
102
{ACAD_REACTORS
330
1A
102
}
330
1A
100
AcDbXrecord
280
     1
270
     1
271
     1
  0
XRECORD
  5
1E
102
{ACAD_REACTORS
330
1A
102
}
330
1A
100
AcDbXrecord
280
     1
270
     1
271
     1
  0
XRECORD
  5
20
102
{ACAD_REACTORS
330
1A
102
}
330
1A
100
AcDbXrecord
280
     1
270
     1
271
     1
  0
XRECORD
  5
1D
102
{ACAD_REACTORS
330
1A
102
}
330
1A
100
AcDbXrecord
280
     1
270
     1
271
     1
  0
XRECORD
  5
14
102
{ACAD_REACTORS
330
12
102
}
330
12
100
AcDbXrecord
280
     1
270
     1
271
     1
  0
XRECORD
  5
13
102
{ACAD_REACTORS
330
12
102
}
330
12
100
AcDbXrecord
280
     1
270
     1
271
     1
  0
XRECORD
  5
17
102
{ACAD_REACTORS
330
12
102
}
330
12
100
AcDbXrecord
280
     1
270
     1
271
     1
  0
XRECORD
  5
16
102
{ACAD_REACTORS
330
12
102
}
330
12
100
AcDbXrecord
280
     1
270
     1
271
     1
  0
XRECORD
  5
18
102
{ACAD_REACTORS
330
12
102
}
330
12
100
AcDbXrecord
280
     1
270
     1
271
     1
  0
XRECORD
  5
15
102
{ACAD_REACTORS
330
12
102
}
330
12
100
AcDbXrecord
280
     1
270
     1
271
     1
  0
XRECORD
  5
24
102
{ACAD_REACTORS
330
22
102
}
330
22
100
AcDbXrecord
280
     1
270
     1
271
     1
  0
XRECORD
  5
23
102
{ACAD_REACTORS
330
22
102
}
330
22
100
AcDbXrecord
280
     1
270
     1
271
     1
  0
XRECORD
  5
27
102
{ACAD_REACTORS
330
22
102
}
330
22
100
AcDbXrecord
280
     1
270
     1
271
     1
  0
XRECORD
  5
26
102
{ACAD_REACTORS
330
22
102
}
330
22
100
AcDbXrecord
280
     1
270
     1
271
     1
  0
XRECORD
  5
28
102
{ACAD_REACTORS
330
22
102
}
330
22
100
AcDbXrecord
280
     1
270
     1
271
     1
  0
XRECORD
  5
25
102
{ACAD_REACTORS
330
22
102
}
330
22
100
AcDbXrecord
280
     1
270
     1
271
     1
  0
CELLSTYLEMAP
  5
A1
102
{ACAD_REACTORS
330
A0
102
}
330
A0
100
AcDbCellStyleMap
 90
        3
300
CELLSTYLE
  1
TABLEFORMAT_BEGIN
 90
        5
170
     1
 91
        0
 92
    32768
 62
   257
 93
        1
300
CONTENTFORMAT
  1
CONTENTFORMAT_BEGIN
 90
        0
 91
        0
 92
      512
 93
        0
300

 40
0.0
140
1.0
 94
        5
 62
     0
340
55
144
0.25
309
CONTENTFORMAT_END
171
     0
 94
        0
309
TABLEFORMAT_END
  1
CELLSTYLE_BEGIN
 90
        1
 91
        1
300
_TITLE
309
CELLSTYLE_END
300
CELLSTYLE
  1
TABLEFORMAT_BEGIN
 90
        5
170
     1
 91
        0
 92
        0
 62
   257
 93
        1
300
CONTENTFORMAT
  1
CONTENTFORMAT_BEGIN
 90
        0
 91
        0
 92
      512
 93
        0
300

 40
0.0
140
1.0
 94
        5
 62
     0
340
55
144
0.18
309
CONTENTFORMAT_END
171
     0
 94
        0
309
TABLEFORMAT_END
  1
CELLSTYLE_BEGIN
 90
        2
 91
        1
300
_HEADER
309
CELLSTYLE_END
300
CELLSTYLE
  1
TABLEFORMAT_BEGIN
 90
        5
170
     1
 91
        0
 92
        0
 62
   257
 93
        1
300
CONTENTFORMAT
  1
CONTENTFORMAT_BEGIN
 90
        0
 91
        0
 92
      512
 93
        0
300

 40
0.0
140
1.0
 94
        2
 62
     0
340
55
144
0.18
309
CONTENTFORMAT_END
171
     0
 94
        0
309
TABLEFORMAT_END
  1
CELLSTYLE_BEGIN
 90
        3
 91
        2
300
_DATA
309
CELLSTYLE_END
  0
ENDSEC
  0
EOF
