  0
SECTION
  2
HEADER
  9
$ACADVER
  1
AC1014
  9
$HANDSEED
  5
FFFF
  9
$MEASUREMENT
 70
     1
  0
ENDSEC
  0
SECTION
  2
TABLES
  0
TABLE
  2
VPORT
  5
8
330
0
100
AcDbSymbolTable
 70
     4
  0
VPORT
  5
2E
330
8
100
AcDbSymbolTableRecord
100
AcDbViewportTableRecord
  2
*ACTIVE
 70
     0
 10
0.0
 20
0.0
 11
1.0
 21
1.0
 12
210.0
 22
148.5
 13
0.0
 23
0.0
 14
10.0
 24
10.0
 15
10.0
 25
10.0
 16
0.0
 26
0.0
 36
1.0
 17
0.0
 27
0.0
 37
0.0
 40
341.0
 41
1.24
 42
50.0
 43
0.0
 44
0.0
 50
0.0
 51
0.0
 71
     0
 72
   100
 73
     1
 74
     3
 75
     0
 76
     0
 77
     0
 78
     0
  0
ENDTAB
  0
TABLE
  2
LTYPE
  5
5
330
0
100
AcDbSymbolTable
 70
     1
  0
LTYPE
  5
14
330
5
100
AcDbSymbolTableRecord
100
AcDbLinetypeTableRecord
  2
BYBLOCK
 70
     0
  3

 72
    65
 73
     0
 40
0.0
  0
LTYPE
  5
15
330
5
100
AcDbSymbolTableRecord
100
AcDbLinetypeTableRecord
  2
BYLAYER
 70
     0
  3

 72
    65
 73
     0
 40
0.0
  0
LTYPE
  5
16
330
5
100
AcDbSymbolTableRecord
100
AcDbLinetypeTableRecord
  2
CONTINUOUS
 70
     0
  3
Solid line
 72
    65
 73
     0
 40
0.0
  0
ENDTAB
  0
TABLE
  2
LAYER
  5
2
100
AcDbSymbolTable
 70
1
  0
LAYER
  5
50
100
AcDbSymbolTableRecord
100
AcDbLayerTableRecord
  2
0
 70
0
  6
CONTINUOUS
  0
ENDTAB
  0
TABLE
  2
STYLE
  5
3
330
0
100
AcDbSymbolTable
 70
     1
  0
STYLE
  5
11
330
3
100
AcDbSymbolTableRecord
100
AcDbTextStyleTableRecord
  2
STANDARD
 70
     0
 40
0.0
 41
1.0
 50
0.0
 71
     0
 42
2.5
  3
txt
  4

  0
ENDTAB
  0
TABLE
  2
VIEW
  5
6
330
0
100
AcDbSymbolTable
 70
     0
  0
ENDTAB
  0
TABLE
  2
UCS
  5
7
330
0
100
AcDbSymbolTable
 70
     0
  0
ENDTAB
  0
TABLE
  2
APPID
  5
9
330
0
100
AcDbSymbolTable
 70
     2
  0
APPID
  5
12
330
9
100
AcDbSymbolTableRecord
100
AcDbRegAppTableRecord
  2
ACAD
 70
     0
  0
ENDTAB
  0
TABLE
  2
DIMSTYLE
  5
A
330
0
100
AcDbSymbolTable
 70
     1
  0
DIMSTYLE
105
27
330
A
100
AcDbSymbolTableRecord
100
AcDbDimStyleTableRecord
  2
ISO-25
 70
     0
  3

  4

  5

  6

  7

 40
1.0
 41
2.5
 42
0.625
 43
3.75
 44
1.25
 45
0.0
 46
0.0
 47
0.0
 48
0.0
140
2.5
141
2.5
142
0.0
143
0.03937007874016
144
1.0
145
0.0
146
1.0
147
0.625
 71
     0
 72
     0
 73
     0
 74
     0
 75
     0
 76
     0
 77
     1
 78
     8
170
     0
171
     3
172
     1
173
     0
174
     0
175
     0
176
     0
177
     0
178
     0
270
     2
271
     2
272
     2
273
     2
274
     3
340
11
275
     0
280
     0
281
     0
282
     0
283
     0
284
     8
285
     0
286
     0
287
     3
288
     0
  0
ENDTAB
  0
TABLE
  2
BLOCK_RECORD
  5
1
330
0
100
AcDbSymbolTable
 70
     1
  0
BLOCK_RECORD
  5
1F
330
1
100
AcDbSymbolTableRecord
100
AcDbBlockTableRecord
  2
*MODEL_SPACE
  0
BLOCK_RECORD
  5
1B
330
1
100
AcDbSymbolTableRecord
100
AcDbBlockTableRecord
  2
*PAPER_SPACE
  0
ENDTAB
  0
ENDSEC
  0
SECTION
  2
BLOCKS
  0
BLOCK
  5
20
330
1F
100
AcDbEntity
  8
0
100
AcDbBlockBegin
  2
*MODEL_SPACE
 70
     0
 10
0.0
 20
0.0
 30
0.0
  3
*MODEL_SPACE
  1

  0
ENDBLK
  5
21
330
1F
100
AcDbEntity
  8
0
100
AcDbBlockEnd
  0
BLOCK
  5
1C
330
1B
100
AcDbEntity
 67
     1
  8
0
100
AcDbBlockBegin
  2
*PAPER_SPACE
  1

  0
ENDBLK
  5
1D
330
1B
100
AcDbEntity
 67
     1
  8
0
100
AcDbBlockEnd
  0
ENDSEC
  0
SECTION
  2
ENTITIES
  0
SPLINE
  5
100
100
AcDbEntity
  8
0
 62
7
100
AcDbSpline
 70
8
 71
3
 72
8
 73
4
 74
0
 40
0
 40
0
 40
0
 40
0
 40
1
 40
1
 40
1
 40
1
 10
55.478222
 20
2.459606
 30
0.0
 10
55.156989
 20
2.694808
 30
0.0
 10
54.951979
 20
3.430831
 30
0.0
 10
54.774920
 20
4.984581
 30
0.0
  0
SPLINE
  5
101
100
AcDbEntity
  8
0
 62
7
100
AcDbSpline
 70
8
 71
3
 72
8
 73
4
 74
0
 40
0
 40
0
 40
0
 40
0
 40
1
 40
1
 40
1
 40
1
 10
54.774920
 20
4.984581
 30
0.0
 10
54.502502
 20
7.375133
 30
0.0
 10
54.643369
 20
8.045323
 30
0.0
 10
55.600574
 20
8.912728
 30
0.0
  0
SPLINE
  5
102
100
AcDbEntity
  8
0
 62
7
100
AcDbSpline
 70
8
 71
3
 72
8
 73
4
 74
0
 40
0
 40
0
 40
0
 40
0
 40
1
 40
1
 40
1
 40
1
 10
55.600574
 20
8.912728
 30
0.0
 10
56.802539
 20
10.001935
 30
0.0
 10
57.945650
 20
9.950326
 30
0.0
 10
59.211350
 20
8.749713
 30
0.0
  0
SPLINE
  5
103
100
AcDbEntity
  8
0
 62
7
100
AcDbSpline
 70
8
 71
3
 72
8
 73
4
 74
0
 40
0
 40
0
 40
0
 40
0
 40
1
 40
1
 40
1
 40
1
 10
59.211350
 20
8.749713
 30
0.0
 10
59.761178
 20
8.228161
 30
0.0
 10
59.801083
 20
8.022997
 30
0.0
 10
59.640848
 20
6.541492
 30
0.0
  0
SPLINE
  5
104
100
AcDbEntity
  8
0
 62
7
100
AcDbSpline
 70
8
 71
3
 72
8
 73
4
 74
0
 40
0
 40
0
 40
0
 40
0
 40
1
 40
1
 40
1
 40
1
 10
59.640848
 20
6.541492
 30
0.0
 10
59.390351
 20
4.225396
 30
0.0
 10
58.926211
 20
3.238815
 30
0.0
 10
57.887127
 20
2.813749
 30
0.0
  0
SPLINE
  5
105
100
AcDbEntity
  8
0
 62
7
100
AcDbSpline
 70
8
 71
3
 72
8
 73
4
 74
0
 40
0
 40
0
 40
0
 40
0
 40
1
 40
1
 40
1
 40
1
 10
57.887127
 20
2.813749
 30
0.0
 10
56.339438
 20
2.180624
 30
0.0
 10
55.939539
 20
2.121834
 30
0.0
 10
55.478222
 20
2.459606
 30
0.0
  0
SPLINE
  5
106
100
AcDbEntity
  8
0
 62
7
100
AcDbSpline
 70
8
 71
3
 72
8
 73
4
 74
0
 40
0
 40
0
 40
0
 40
0
 40
1
 40
1
 40
1
 40
1
 10
50.843363
 20
2.841683
 30
0.0
 10
49.575739
 20
3.466293
 30
0.0
 10
49.193720
 20
4.220123
 30
0.0
 10
49.026882
 20
6.426121
 30
0.0
  0
SPLINE
  5
107
100
AcDbEntity
  8
0
 62
7
100
AcDbSpline
 70
8
 71
3
 72
8
 73
4
 74
0
 40
0
 40
0
 40
0
 40
0
 40
1
 40
1
 40
1
 40
1
 10
49.026882
 20
6.426121
 30
0.0
 10
48.880046
 20
8.367609
 30
0.0
 10
48.882874
 20
8.378349
 30
0.0
 10
49.727734
 20
9.089252
 30
0.0
  0
SPLINE
  5
108
100
AcDbEntity
  8
0
 62
7
100
AcDbSpline
 70
8
 71
3
 72
8
 73
4
 74
0
 40
0
 40
0
 40
0
 40
0
 40
1
 40
1
 40
1
 40
1
 10
49.727734
 20
9.089252
 30
0.0
 10
50.930929
 20
10.101675
 30
0.0
 10
51.944307
 20
10.034561
 30
0.0
 10
53.113869
 20
8.865000
 30
0.0
  0
LWPOLYLINE
  5
109
100
AcDbEntity
  8
0
 62
7
100
AcDbPolyline
 90
1
 70
1
 10
55.478222
 20
2.459606
 30
0.0
  0
SPLINE
  5
10a
100
AcDbEntity
  8
0
 62
7
100
AcDbSpline
 70
8
 71
3
 72
8
 73
4
 74
0
 40
0
 40
0
 40
0
 40
0
 40
1
 40
1
 40
1
 40
1
 10
53.894583
 20
5.697683
 30
0.0
 10
53.808056
 20
4.471580
 30
0.0
 10
53.607970
 20
3.226821
 30
0.0
 10
53.449945
 20
2.931552
 30
0.0
  0
SPLINE
  5
10b
100
AcDbEntity
  8
0
 62
7
100
AcDbSpline
 70
8
 71
3
 72
8
 73
4
 74
0
 40
0
 40
0
 40
0
 40
0
 40
1
 40
1
 40
1
 40
1
 10
53.449945
 20
2.931552
 30
0.0
 10
53.097451
 20
2.272911
 30
0.0
 10
52.069587
 20
2.237473
 30
0.0
 10
50.843363
 20
2.841683
 30
0.0
  0
LWPOLYLINE
  5
10c
100
AcDbEntity
  8
0
 62
7
100
AcDbPolyline
 90
3
 70
0
 10
53.113869
 20
8.865000
 30
0.0
 10
54.051906
 20
7.926962
 30
0.0
 10
53.894583
 20
5.697683
 30
0.0
  0
SPLINE
  5
10d
100
AcDbEntity
  8
0
 62
7
100
AcDbSpline
 70
8
 71
3
 72
8
 73
4
 74
0
 40
0
 40
0
 40
0
 40
0
 40
1
 40
1
 40
1
 40
1
 10
45.828006
 20
5.381278
 30
0.0
 10
44.743870
 20
6.485932
 30
0.0
 10
44.714583
 20
6.562325
 30
0.0
 10
44.714583
 20
8.285596
 30
0.0
  0
SPLINE
  5
10e
100
AcDbEntity
  8
0
 62
7
100
AcDbSpline
 70
8
 71
3
 72
8
 73
4
 74
0
 40
0
 40
0
 40
0
 40
0
 40
1
 40
1
 40
1
 40
1
 10
44.714583
 20
8.285596
 30
0.0
 10
44.714583
 20
9.880066
 30
0.0
 10
44.779930
 20
10.098236
 30
0.0
 10
45.374113
 20
10.487559
 30
0.0
  0
SPLINE
  5
10f
100
AcDbEntity
  8
0
 62
7
100
AcDbSpline
 70
8
 71
3
 72
8
 73
4
 74
0
 40
0
 40
0
 40
0
 40
0
 40
1
 40
1
 40
1
 40
1
 10
45.374113
 20
10.487559
 30
0.0
 10
46.227005
 20
11.046397
 30
0.0
 10
47.180614
 20
10.804985
 30
0.0
 10
47.579640
 20
9.929220
 30
0.0
  0
SPLINE
  5
110
100
AcDbEntity
  8
0
 62
7
100
AcDbSpline
 70
8
 71
3
 72
8
 73
4
 74
0
 40
0
 40
0
 40
0
 40
0
 40
1
 40
1
 40
1
 40
1
 10
47.579640
 20
9.929220
 30
0.0
 10
48.206559
 20
8.553283
 30
0.0
 10
47.874595
 20
4.246785
 30
0.0
 10
47.141612
 20
4.246785
 30
0.0
  0
SPLINE
  5
111
100
AcDbEntity
  8
0
 62
7
100
AcDbSpline
 70
8
 71
3
 72
8
 73
4
 74
0
 40
0
 40
0
 40
0
 40
0
 40
1
 40
1
 40
1
 40
1
 10
47.141612
 20
4.246785
 30
0.0
 10
47.031510
 20
4.246785
 30
0.0
 10
46.440386
 20
4.757306
 30
0.0
 10
45.828006
 20
5.381278
 30
0.0
  0
LWPOLYLINE
  5
112
100
AcDbEntity
  8
0
 62
7
100
AcDbPolyline
 90
1
 70
1
 10
50.843363
 20
2.841683
 30
0.0
  0
SPLINE
  5
113
100
AcDbEntity
  8
0
 62
7
100
AcDbSpline
 70
8
 71
3
 72
8
 73
4
 74
0
 40
0
 40
0
 40
0
 40
0
 40
1
 40
1
 40
1
 40
1
 10
60.959542
 20
4.554921
 30
0.0
 10
60.535349
 20
5.241277
 30
0.0
 10
60.523885
 20
8.604459
 30
0.0
 10
60.942318
 20
9.605923
 30
0.0
  0
SPLINE
  5
114
100
AcDbEntity
  8
0
 62
7
100
AcDbSpline
 70
8
 71
3
 72
8
 73
4
 74
0
 40
0
 40
0
 40
0
 40
0
 40
1
 40
1
 40
1
 40
1
 10
60.942318
 20
9.605923
 30
0.0
 10
61.308165
 20
10.481519
 30
0.0
 10
61.463423
 20
10.596785
 30
0.0
 10
62.276969
 20
10.596785
 30
0.0
  0
SPLINE
  5
115
100
AcDbEntity
  8
0
 62
7
100
AcDbSpline
 70
8
 71
3
 72
8
 73
4
 74
0
 40
0
 40
0
 40
0
 40
0
 40
1
 40
1
 40
1
 40
1
 10
62.276969
 20
10.596785
 30
0.0
 10
63.716686
 20
10.596785
 30
0.0
 10
64.104213
 20
10.013588
 30
0.0
 10
63.978316
 20
8.036399
 30
0.0
  0
SPLINE
  5
116
100
AcDbEntity
  8
0
 62
7
100
AcDbSpline
 70
8
 71
3
 72
8
 73
4
 74
0
 40
0
 40
0
 40
0
 40
0
 40
1
 40
1
 40
1
 40
1
 10
63.978316
 20
8.036399
 30
0.0
 10
63.881278
 20
6.512452
 30
0.0
 10
63.779633
 20
6.268889
 30
0.0
 10
62.838441
 20
5.305020
 30
0.0
  0
SPLINE
  5
117
100
AcDbEntity
  8
0
 62
7
100
AcDbSpline
 70
8
 71
3
 72
8
 73
4
 74
0
 40
0
 40
0
 40
0
 40
0
 40
1
 40
1
 40
1
 40
1
 10
62.838441
 20
5.305020
 30
0.0
 10
61.773088
 20
4.214000
 30
0.0
 10
61.289544
 20
4.020958
 30
0.0
 10
60.959537
 20
4.554921
 30
0.0
  0
LWPOLYLINE
  5
118
100
AcDbEntity
  8
0
 62
7
100
AcDbPolyline
 90
1
 70
1
 10
45.828006
 20
5.381278
 30
0.0
  0
SPLINE
  5
119
100
AcDbEntity
  8
0
 62
7
100
AcDbSpline
 70
8
 71
3
 72
8
 73
4
 74
0
 40
0
 40
0
 40
0
 40
0
 40
1
 40
1
 40
1
 40
1
 10
42.465625
 20
6.855725
 30
0.0
 10
41.200840
 20
7.636976
 30
0.0
 10
40.762322
 20
8.293044
 30
0.0
 10
40.481155
 20
9.824709
 30
0.0
  0
SPLINE
  5
11a
100
AcDbEntity
  8
0
 62
7
100
AcDbSpline
 70
8
 71
3
 72
8
 73
4
 74
0
 40
0
 40
0
 40
0
 40
0
 40
1
 40
1
 40
1
 40
1
 10
40.481155
 20
9.824709
 30
0.0
 10
40.194034
 20
11.388783
 30
0.0
 10
40.440909
 20
13.537851
 30
0.0
 10
40.926284
 20
13.699643
 30
0.0
  0
SPLINE
  5
11b
100
AcDbEntity
  8
0
 62
7
100
AcDbSpline
 70
8
 71
3
 72
8
 73
4
 74
0
 40
0
 40
0
 40
0
 40
0
 40
1
 40
1
 40
1
 40
1
 10
40.926284
 20
13.699643
 30
0.0
 10
41.094144
 20
13.755598
 30
0.0
 10
41.777055
 20
13.255805
 30
0.0
 10
42.443866
 20
12.588994
 30
0.0
  0
LWPOLYLINE
  5
11c
100
AcDbEntity
  8
0
 62
7
100
AcDbPolyline
 90
1
 70
1
 10
60.959537
 20
4.554921
 30
0.0
  0
SPLINE
  5
11d
100
AcDbEntity
  8
0
 62
7
100
AcDbSpline
 70
8
 71
3
 72
8
 73
4
 74
0
 40
0
 40
0
 40
0
 40
0
 40
1
 40
1
 40
1
 40
1
 10
43.656250
 20
8.870029
 30
0.0
 10
43.656250
 20
7.491413
 30
0.0
 10
43.566953
 20
6.363896
 30
0.0
 10
43.457813
 20
6.364441
 30
0.0
  0
SPLINE
  5
11e
100
AcDbEntity
  8
0
 62
7
100
AcDbSpline
 70
8
 71
3
 72
8
 73
4
 74
0
 40
0
 40
0
 40
0
 40
0
 40
1
 40
1
 40
1
 40
1
 10
43.457813
 20
6.364441
 30
0.0
 10
43.348672
 20
6.364970
 30
0.0
 10
42.902188
 20
6.586061
 30
0.0
 10
42.465625
 20
6.855725
 30
0.0
  0
LWPOLYLINE
  5
11f
100
AcDbEntity
  8
0
 62
7
100
AcDbPolyline
 90
3
 70
0
 10
42.443866
 20
12.588994
 30
0.0
 10
43.656250
 20
11.376610
 30
0.0
 10
43.656250
 20
8.870029
 30
0.0
  0
SPLINE
  5
120
100
AcDbEntity
  8
0
 62
7
100
AcDbSpline
 70
8
 71
3
 72
8
 73
4
 74
0
 40
0
 40
0
 40
0
 40
0
 40
1
 40
1
 40
1
 40
1
 10
64.822917
 20
8.330602
 30
0.0
 10
64.822917
 20
10.688976
 30
0.0
 10
65.090421
 20
11.479832
 30
0.0
 10
66.278390
 20
12.633571
 30
0.0
  0
SPLINE
  5
121
100
AcDbEntity
  8
0
 62
7
100
AcDbSpline
 70
8
 71
3
 72
8
 73
4
 74
0
 40
0
 40
0
 40
0
 40
0
 40
1
 40
1
 40
1
 40
1
 10
66.278390
 20
12.633571
 30
0.0
 10
67.780778
 20
14.092671
 30
0.0
 10
68.253039
 20
13.701337
 30
0.0
 10
68.257412
 20
10.993660
 30
0.0
  0
SPLINE
  5
122
100
AcDbEntity
  8
0
 62
7
100
AcDbSpline
 70
8
 71
3
 72
8
 73
4
 74
0
 40
0
 40
0
 40
0
 40
0
 40
1
 40
1
 40
1
 40
1
 10
68.257412
 20
10.993660
 30
0.0
 10
68.261143
 20
8.685739
 30
0.0
 10
67.871462
 20
7.808809
 30
0.0
 10
66.502063
 20
7.043439
 30
0.0
  0
SPLINE
  5
123
100
AcDbEntity
  8
0
 62
7
100
AcDbSpline
 70
8
 71
3
 72
8
 73
4
 74
0
 40
0
 40
0
 40
0
 40
0
 40
1
 40
1
 40
1
 40
1
 10
66.502063
 20
7.043439
 30
0.0
 10
65.832916
 20
6.669445
 30
0.0
 10
65.181366
 20
6.363451
 30
0.0
 10
65.054176
 20
6.363451
 30
0.0
  0
SPLINE
  5
124
100
AcDbEntity
  8
0
 62
7
100
AcDbSpline
 70
8
 71
3
 72
8
 73
4
 74
0
 40
0
 40
0
 40
0
 40
0
 40
1
 40
1
 40
1
 40
1
 10
65.054176
 20
6.363451
 30
0.0
 10
64.926983
 20
6.363451
 30
0.0
 10
64.822917
 20
7.248671
 30
0.0
 10
64.822917
 20
8.330602
 30
0.0
  0
LWPOLYLINE
  5
125
100
AcDbEntity
  8
0
 62
7
100
AcDbPolyline
 90
1
 70
1
 10
42.465625
 20
6.855725
 30
0.0
  0
SPLINE
  5
126
100
AcDbEntity
  8
0
 62
7
100
AcDbSpline
 70
8
 71
3
 72
8
 73
4
 74
0
 40
0
 40
0
 40
0
 40
0
 40
1
 40
1
 40
1
 40
1
 10
52.400502
 20
10.243936
 30
0.0
 10
51.541857
 20
10.617975
 30
0.0
 10
50.742305
 20
10.602862
 30
0.0
 10
49.681805
 20
10.192544
 30
0.0
  0
SPLINE
  5
127
100
AcDbEntity
  8
0
 62
7
100
AcDbSpline
 70
8
 71
3
 72
8
 73
4
 74
0
 40
0
 40
0
 40
0
 40
0
 40
1
 40
1
 40
1
 40
1
 10
49.681805
 20
10.192544
 30
0.0
 10
49.265134
 20
10.031328
 30
0.0
 10
49.237307
 20
10.209583
 30
0.0
 10
49.364580
 20
12.224536
 30
0.0
  0
SPLINE
  5
128
100
AcDbEntity
  8
0
 62
7
100
AcDbSpline
 70
8
 71
3
 72
8
 73
4
 74
0
 40
0
 40
0
 40
0
 40
0
 40
1
 40
1
 40
1
 40
1
 10
49.364580
 20
12.224536
 30
0.0
 10
49.499666
 20
14.363181
 30
0.0
 10
49.491252
 20
14.405427
 30
0.0
 10
49.099324
 20
13.556321
 30
0.0
  0
SPLINE
  5
129
100
AcDbEntity
  8
0
 62
7
100
AcDbSpline
 70
8
 71
3
 72
8
 73
4
 74
0
 40
0
 40
0
 40
0
 40
0
 40
1
 40
1
 40
1
 40
1
 10
49.099324
 20
13.556321
 30
0.0
 10
48.876704
 20
13.074012
 30
0.0
 10
48.565287
 20
12.199313
 30
0.0
 10
48.407286
 20
11.612541
 30
0.0
  0
SPLINE
  5
12a
100
AcDbEntity
  8
0
 62
7
100
AcDbSpline
 70
8
 71
3
 72
8
 73
4
 74
0
 40
0
 40
0
 40
0
 40
0
 40
1
 40
1
 40
1
 40
1
 10
48.407286
 20
11.612541
 30
0.0
 10
48.133087
 20
10.594245
 30
0.0
 10
48.097636
 20
10.565932
 30
0.0
 10
47.628458
 20
10.990530
 30
0.0
  0
SPLINE
  5
12b
100
AcDbEntity
  8
0
 62
7
100
AcDbSpline
 70
8
 71
3
 72
8
 73
4
 74
0
 40
0
 40
0
 40
0
 40
0
 40
1
 40
1
 40
1
 40
1
 10
47.628458
 20
10.990530
 30
0.0
 10
47.358104
 20
11.235198
 30
0.0
 10
46.638969
 20
11.502168
 30
0.0
 10
46.030383
 20
11.583794
 30
0.0
  0
LWPOLYLINE
  5
12c
100
AcDbEntity
  8
0
 62
7
100
AcDbPolyline
 90
1
 70
1
 10
64.822917
 20
8.330602
 30
0.0
  0
SPLINE
  5
12d
100
AcDbEntity
  8
0
 62
7
100
AcDbSpline
 70
8
 71
3
 72
8
 73
4
 74
0
 40
0
 40
0
 40
0
 40
0
 40
1
 40
1
 40
1
 40
1
 10
45.094382
 20
12.818144
 30
0.0
 10
45.551487
 20
15.729127
 30
0.0
 10
45.572318
 20
16.017129
 30
0.0
 10
45.306872
 20
15.756160
 30
0.0
  0
SPLINE
  5
12e
100
AcDbEntity
  8
0
 62
7
100
AcDbSpline
 70
8
 71
3
 72
8
 73
4
 74
0
 40
0
 40
0
 40
0
 40
0
 40
1
 40
1
 40
1
 40
1
 10
45.306872
 20
15.756160
 30
0.0
 10
45.158856
 20
15.610639
 30
0.0
 10
44.839096
 20
14.794741
 30
0.0
 10
44.596296
 20
13.943052
 30
0.0
  0
SPLINE
  5
12f
100
AcDbEntity
  8
0
 62
7
100
AcDbSpline
 70
8
 71
3
 72
8
 73
4
 74
0
 40
0
 40
0
 40
0
 40
0
 40
1
 40
1
 40
1
 40
1
 10
44.596296
 20
13.943052
 30
0.0
 10
44.193055
 20
12.528590
 30
0.0
 10
44.116075
 20
12.427757
 30
0.0
 10
43.707106
 20
12.778356
 30
0.0
  0
SPLINE
  5
130
100
AcDbEntity
  8
0
 62
7
100
AcDbSpline
 70
8
 71
3
 72
8
 73
4
 74
0
 40
0
 40
0
 40
0
 40
0
 40
1
 40
1
 40
1
 40
1
 10
43.707106
 20
12.778356
 30
0.0
 10
43.460855
 20
12.989462
 30
0.0
 10
43.051016
 20
13.236078
 30
0.0
 10
42.796354
 20
13.326390
 30
0.0
  0
SPLINE
  5
131
100
AcDbEntity
  8
0
 62
7
100
AcDbSpline
 70
8
 71
3
 72
8
 73
4
 74
0
 40
0
 40
0
 40
0
 40
0
 40
1
 40
1
 40
1
 40
1
 10
42.796354
 20
13.326390
 30
0.0
 10
42.265282
 20
13.514726
 30
0.0
 10
42.245486
 20
13.731507
 30
0.0
 10
42.613564
 20
15.328059
 30
0.0
  0
SPLINE
  5
132
100
AcDbEntity
  8
0
 62
7
100
AcDbSpline
 70
8
 71
3
 72
8
 73
4
 74
0
 40
0
 40
0
 40
0
 40
0
 40
1
 40
1
 40
1
 40
1
 10
42.613564
 20
15.328059
 30
0.0
 10
42.955019
 20
16.809141
 30
0.0
 10
42.749983
 20
17.019040
 30
0.0
 10
42.163378
 20
15.788918
 30
0.0
  0
SPLINE
  5
133
100
AcDbEntity
  8
0
 62
7
100
AcDbSpline
 70
8
 71
3
 72
8
 73
4
 74
0
 40
0
 40
0
 40
0
 40
0
 40
1
 40
1
 40
1
 40
1
 10
42.163378
 20
15.788918
 30
0.0
 10
41.198763
 20
13.766096
 30
0.0
 10
40.592610
 20
15.074659
 30
0.0
 10
41.533763
 20
17.148133
 30
0.0
  0
SPLINE
  5
134
100
AcDbEntity
  8
0
 62
7
100
AcDbSpline
 70
8
 71
3
 72
8
 73
4
 74
0
 40
0
 40
0
 40
0
 40
0
 40
1
 40
1
 40
1
 40
1
 10
41.533763
 20
17.148133
 30
0.0
 10
42.166175
 20
18.541418
 30
0.0
 10
42.615459
 20
20.122507
 30
0.0
 10
42.378151
 20
20.119658
 30
0.0
  0
SPLINE
  5
135
100
AcDbEntity
  8
0
 62
7
100
AcDbSpline
 70
8
 71
3
 72
8
 73
4
 74
0
 40
0
 40
0
 40
0
 40
0
 40
1
 40
1
 40
1
 40
1
 10
42.378151
 20
20.119658
 30
0.0
 10
42.280742
 20
20.118599
 30
0.0
 10
41.784323
 20
19.262259
 30
0.0
 10
41.275000
 20
18.216925
 30
0.0
  0
SPLINE
  5
136
100
AcDbEntity
  8
0
 62
7
100
AcDbSpline
 70
8
 71
3
 72
8
 73
4
 74
0
 40
0
 40
0
 40
0
 40
0
 40
1
 40
1
 40
1
 40
1
 10
41.275000
 20
18.216925
 30
0.0
 10
40.765677
 20
17.171591
 30
0.0
 10
40.207718
 20
16.272185
 30
0.0
 10
40.035091
 20
16.218247
 30
0.0
  0
SPLINE
  5
137
100
AcDbEntity
  8
0
 62
7
100
AcDbSpline
 70
8
 71
3
 72
8
 73
4
 74
0
 40
0
 40
0
 40
0
 40
0
 40
1
 40
1
 40
1
 40
1
 10
40.035091
 20
16.218247
 30
0.0
 10
39.862466
 20
16.164311
 30
0.0
 10
39.519564
 20
16.427955
 30
0.0
 10
39.273088
 20
16.804127
 30
0.0
  0
SPLINE
  5
138
100
AcDbEntity
  8
0
 62
7
100
AcDbSpline
 70
8
 71
3
 72
8
 73
4
 74
0
 40
0
 40
0
 40
0
 40
0
 40
1
 40
1
 40
1
 40
1
 10
39.273088
 20
16.804127
 30
0.0
 10
38.847366
 20
17.453859
 30
0.0
 10
38.853139
 20
17.561740
 30
0.0
 10
39.388516
 20
18.960764
 30
0.0
  0
SPLINE
  5
139
100
AcDbEntity
  8
0
 62
7
100
AcDbSpline
 70
8
 71
3
 72
8
 73
4
 74
0
 40
0
 40
0
 40
0
 40
0
 40
1
 40
1
 40
1
 40
1
 10
39.388516
 20
18.960764
 30
0.0
 10
40.017793
 20
20.605160
 30
0.0
 10
40.094802
 20
22.076093
 30
0.0
 10
39.658205
 20
24.111873
 30
0.0
  0
SPLINE
  5
13a
100
AcDbEntity
  8
0
 62
7
100
AcDbSpline
 70
8
 71
3
 72
8
 73
4
 74
0
 40
0
 40
0
 40
0
 40
0
 40
1
 40
1
 40
1
 40
1
 10
39.658205
 20
24.111873
 30
0.0
 10
39.261468
 20
25.961806
 30
0.0
 10
38.904778
 20
25.336085
 30
0.0
 10
38.891919
 20
22.767618
 30
0.0
  0
LWPOLYLINE
  5
13b
100
AcDbEntity
  8
0
 62
7
100
AcDbPolyline
 90
3
 70
0
 10
46.030383
 20
11.583794
 30
0.0
 10
44.923863
 20
11.732210
 30
0.0
 10
45.094382
 20
12.818144
 30
0.0
  0
SPLINE
  5
13c
100
AcDbEntity
  8
0
 62
7
100
AcDbSpline
 70
8
 71
3
 72
8
 73
4
 74
0
 40
0
 40
0
 40
0
 40
0
 40
1
 40
1
 40
1
 40
1
 10
38.385353
 20
21.429419
 30
0.0
 10
37.844584
 20
22.133010
 30
0.0
 10
37.513797
 20
23.132066
 30
0.0
 10
37.043471
 20
25.482243
 30
0.0
  0
SPLINE
  5
13d
100
AcDbEntity
  8
0
 62
7
100
AcDbSpline
 70
8
 71
3
 72
8
 73
4
 74
0
 40
0
 40
0
 40
0
 40
0
 40
1
 40
1
 40
1
 40
1
 10
37.043471
 20
25.482243
 30
0.0
 10
36.658116
 20
27.407817
 30
0.0
 10
35.859096
 20
28.362651
 30
0.0
 10
34.002522
 20
29.116176
 30
0.0
  0
SPLINE
  5
13e
100
AcDbEntity
  8
0
 62
7
100
AcDbSpline
 70
8
 71
3
 72
8
 73
4
 74
0
 40
0
 40
0
 40
0
 40
0
 40
1
 40
1
 40
1
 40
1
 10
34.002522
 20
29.116176
 30
0.0
 10
33.200192
 20
29.441815
 30
0.0
 10
32.543750
 20
29.813478
 30
0.0
 10
32.543750
 20
29.942097
 30
0.0
  0
SPLINE
  5
13f
100
AcDbEntity
  8
0
 62
7
100
AcDbSpline
 70
8
 71
3
 72
8
 73
4
 74
0
 40
0
 40
0
 40
0
 40
0
 40
1
 40
1
 40
1
 40
1
 10
32.543750
 20
29.942097
 30
0.0
 10
32.543750
 20
30.268839
 30
0.0
 10
35.948604
 20
30.234557
 30
0.0
 10
37.547188
 20
29.891723
 30
0.0
  0
SPLINE
  5
140
100
AcDbEntity
  8
0
 62
7
100
AcDbSpline
 70
8
 71
3
 72
8
 73
4
 74
0
 40
0
 40
0
 40
0
 40
0
 40
1
 40
1
 40
1
 40
1
 10
37.547188
 20
29.891723
 30
0.0
 10
38.276109
 20
29.735396
 30
0.0
 10
39.591657
 20
29.142679
 30
0.0
 10
40.470627
 20
28.574577
 30
0.0
  0
SPLINE
  5
141
100
AcDbEntity
  8
0
 62
7
100
AcDbSpline
 70
8
 71
3
 72
8
 73
4
 74
0
 40
0
 40
0
 40
0
 40
0
 40
1
 40
1
 40
1
 40
1
 10
40.470627
 20
28.574577
 30
0.0
 10
41.349594
 20
28.006471
 30
0.0
 10
42.068750
 20
27.604506
 30
0.0
 10
42.068750
 20
27.681320
 30
0.0
  0
SPLINE
  5
142
100
AcDbEntity
  8
0
 62
7
100
AcDbSpline
 70
8
 71
3
 72
8
 73
4
 74
0
 40
0
 40
0
 40
0
 40
0
 40
1
 40
1
 40
1
 40
1
 10
42.068750
 20
27.681320
 30
0.0
 10
42.068750
 20
28.076250
 30
0.0
 10
41.060846
 20
29.720506
 30
0.0
 10
39.794995
 20
31.390640
 30
0.0
  0
SPLINE
  5
143
100
AcDbEntity
  8
0
 62
7
100
AcDbSpline
 70
8
 71
3
 72
8
 73
4
 74
0
 40
0
 40
0
 40
0
 40
0
 40
1
 40
1
 40
1
 40
1
 10
39.794995
 20
31.390640
 30
0.0
 10
37.640263
 20
34.233543
 30
0.0
 10
37.551056
 20
34.258390
 30
0.0
 10
30.159010
 20
34.074465
 30
0.0
  0
SPLINE
  5
144
100
AcDbEntity
  8
0
 62
7
100
AcDbSpline
 70
8
 71
3
 72
8
 73
4
 74
0
 40
0
 40
0
 40
0
 40
0
 40
1
 40
1
 40
1
 40
1
 10
30.159010
 20
34.074465
 30
0.0
 10
23.198647
 20
33.901282
 30
0.0
 10
23.540787
 20
33.800981
 30
0.0
 10
22.869558
 20
36.211447
 30
0.0
  0
SPLINE
  5
145
100
AcDbEntity
  8
0
 62
7
100
AcDbSpline
 70
8
 71
3
 72
8
 73
4
 74
0
 40
0
 40
0
 40
0
 40
0
 40
1
 40
1
 40
1
 40
1
 10
22.869558
 20
36.211447
 30
0.0
 10
22.033342
 20
39.214417
 30
0.0
 10
21.605461
 20
40.407976
 30
0.0
 10
20.470382
 20
42.903873
 30
0.0
  0
SPLINE
  5
146
100
AcDbEntity
  8
0
 62
7
100
AcDbSpline
 70
8
 71
3
 72
8
 73
4
 74
0
 40
0
 40
0
 40
0
 40
0
 40
1
 40
1
 40
1
 40
1
 10
20.470382
 20
42.903873
 30
0.0
 10
18.945504
 20
46.256895
 30
0.0
 10
18.947295
 20
47.054516
 30
0.0
 10
20.486813
 20
50.217612
 30
0.0
  0
SPLINE
  5
147
100
AcDbEntity
  8
0
 62
7
100
AcDbSpline
 70
8
 71
3
 72
8
 73
4
 74
0
 40
0
 40
0
 40
0
 40
0
 40
1
 40
1
 40
1
 40
1
 10
20.486813
 20
50.217612
 30
0.0
 10
21.429232
 20
52.153915
 30
0.0
 10
23.027541
 20
56.701698
 30
0.0
 10
24.197147
 20
60.774882
 30
0.0
  0
SPLINE
  5
148
100
AcDbEntity
  8
0
 62
7
100
AcDbSpline
 70
8
 71
3
 72
8
 73
4
 74
0
 40
0
 40
0
 40
0
 40
0
 40
1
 40
1
 40
1
 40
1
 10
24.197147
 20
60.774882
 30
0.0
 10
24.314434
 20
61.183340
 30
0.0
 10
24.183256
 20
61.482991
 30
0.0
 10
23.731623
 20
61.838242
 30
0.0
  0
SPLINE
  5
149
100
AcDbEntity
  8
0
 62
7
100
AcDbSpline
 70
8
 71
3
 72
8
 73
4
 74
0
 40
0
 40
0
 40
0
 40
0
 40
1
 40
1
 40
1
 40
1
 10
23.731623
 20
61.838242
 30
0.0
 10
22.775390
 20
62.590415
 30
0.0
 10
22.489590
 20
63.328614
 30
0.0
 10
22.489590
 20
65.046307
 30
0.0
  0
SPLINE
  5
14a
100
AcDbEntity
  8
0
 62
7
100
AcDbSpline
 70
8
 71
3
 72
8
 73
4
 74
0
 40
0
 40
0
 40
0
 40
0
 40
1
 40
1
 40
1
 40
1
 10
22.489590
 20
65.046307
 30
0.0
 10
22.489590
 20
66.504045
 30
0.0
 10
22.565411
 20
66.700090
 30
0.0
 10
23.571090
 20
67.842598
 30
0.0
  0
SPLINE
  5
14b
100
AcDbEntity
  8
0
 62
7
100
AcDbSpline
 70
8
 71
3
 72
8
 73
4
 74
0
 40
0
 40
0
 40
0
 40
0
 40
1
 40
1
 40
1
 40
1
 10
23.571090
 20
67.842598
 30
0.0
 10
25.154267
 20
69.641183
 30
0.0
 10
25.622677
 20
69.665977
 30
0.0
 10
27.251253
 20
68.037403
 30
0.0
  0
SPLINE
  5
14c
100
AcDbEntity
  8
0
 62
7
100
AcDbSpline
 70
8
 71
3
 72
8
 73
4
 74
0
 40
0
 40
0
 40
0
 40
0
 40
1
 40
1
 40
1
 40
1
 10
27.251253
 20
68.037403
 30
0.0
 10
28.535193
 20
66.753462
 30
0.0
 10
30.076349
 20
65.720352
 30
0.0
 10
30.329743
 20
65.973746
 30
0.0
  0
SPLINE
  5
14d
100
AcDbEntity
  8
0
 62
7
100
AcDbSpline
 70
8
 71
3
 72
8
 73
4
 74
0
 40
0
 40
0
 40
0
 40
0
 40
1
 40
1
 40
1
 40
1
 10
30.329743
 20
65.973746
 30
0.0
 10
30.394677
 20
66.038680
 30
0.0
 10
29.897676
 20
66.732068
 30
0.0
 10
29.225296
 20
67.514608
 30
0.0
  0
SPLINE
  5
14e
100
AcDbEntity
  8
0
 62
7
100
AcDbSpline
 70
8
 71
3
 72
8
 73
4
 74
0
 40
0
 40
0
 40
0
 40
0
 40
1
 40
1
 40
1
 40
1
 10
29.225296
 20
67.514608
 30
0.0
 10
27.709596
 20
69.278638
 30
0.0
 10
27.347183
 20
69.960151
 30
0.0
 10
26.892784
 20
71.900854
 30
0.0
  0
SPLINE
  5
14f
100
AcDbEntity
  8
0
 62
7
100
AcDbSpline
 70
8
 71
3
 72
8
 73
4
 74
0
 40
0
 40
0
 40
0
 40
0
 40
1
 40
1
 40
1
 40
1
 10
26.892784
 20
71.900854
 30
0.0
 10
26.695180
 20
72.744814
 30
0.0
 10
26.231332
 20
74.271256
 30
0.0
 10
25.862011
 20
75.292950
 30
0.0
  0
SPLINE
  5
150
100
AcDbEntity
  8
0
 62
7
100
AcDbSpline
 70
8
 71
3
 72
8
 73
4
 74
0
 40
0
 40
0
 40
0
 40
0
 40
1
 40
1
 40
1
 40
1
 10
25.862011
 20
75.292950
 30
0.0
 10
25.492693
 20
76.314644
 30
0.0
 10
25.108375
 20
77.921988
 30
0.0
 10
25.007971
 20
78.864825
 30
0.0
  0
SPLINE
  5
151
100
AcDbEntity
  8
0
 62
7
100
AcDbSpline
 70
8
 71
3
 72
8
 73
4
 74
0
 40
0
 40
0
 40
0
 40
0
 40
1
 40
1
 40
1
 40
1
 10
25.007971
 20
78.864825
 30
0.0
 10
24.612384
 20
82.579604
 30
0.0
 10
26.289927
 20
89.884239
 30
0.0
 10
27.999634
 20
91.891636
 30
0.0
  0
SPLINE
  5
152
100
AcDbEntity
  8
0
 62
7
100
AcDbSpline
 70
8
 71
3
 72
8
 73
4
 74
0
 40
0
 40
0
 40
0
 40
0
 40
1
 40
1
 40
1
 40
1
 10
27.999634
 20
91.891636
 30
0.0
 10
28.624940
 20
92.625820
 30
0.0
 10
28.162586
 20
92.732931
 30
0.0
 10
27.128049
 20
92.093553
 30
0.0
  0
SPLINE
  5
153
100
AcDbEntity
  8
0
 62
7
100
AcDbSpline
 70
8
 71
3
 72
8
 73
4
 74
0
 40
0
 40
0
 40
0
 40
0
 40
1
 40
1
 40
1
 40
1
 10
27.128049
 20
92.093553
 30
0.0
 10
25.855780
 20
91.307245
 30
0.0
 10
25.055336
 20
90.180181
 30
0.0
 10
24.305811
 20
88.119701
 30
0.0
  0
SPLINE
  5
154
100
AcDbEntity
  8
0
 62
7
100
AcDbSpline
 70
8
 71
3
 72
8
 73
4
 74
0
 40
0
 40
0
 40
0
 40
0
 40
1
 40
1
 40
1
 40
1
 10
24.305811
 20
88.119701
 30
0.0
 10
23.748141
 20
86.586645
 30
0.0
 10
23.680598
 20
85.954616
 30
0.0
 10
23.683744
 20
82.298868
 30
0.0
  0
SPLINE
  5
155
100
AcDbEntity
  8
0
 62
7
100
AcDbSpline
 70
8
 71
3
 72
8
 73
4
 74
0
 40
0
 40
0
 40
0
 40
0
 40
1
 40
1
 40
1
 40
1
 10
23.683744
 20
82.298868
 30
0.0
 10
23.686734
 20
78.832956
 30
0.0
 10
23.778923
 20
77.887894
 30
0.0
 10
24.279057
 20
76.196574
 30
0.0
  0
SPLINE
  5
156
100
AcDbEntity
  8
0
 62
7
100
AcDbSpline
 70
8
 71
3
 72
8
 73
4
 74
0
 40
0
 40
0
 40
0
 40
0
 40
1
 40
1
 40
1
 40
1
 10
24.279057
 20
76.196574
 30
0.0
 10
24.604537
 20
75.095886
 30
0.0
 10
24.870840
 20
73.579717
 30
0.0
 10
24.870840
 20
72.827311
 30
0.0
  0
SPLINE
  5
157
100
AcDbEntity
  8
0
 62
7
100
AcDbSpline
 70
8
 71
3
 72
8
 73
4
 74
0
 40
0
 40
0
 40
0
 40
0
 40
1
 40
1
 40
1
 40
1
 10
24.870840
 20
72.827311
 30
0.0
 10
24.870840
 20
71.685843
 30
0.0
 10
24.742027
 20
71.316210
 30
0.0
 10
24.092991
 20
70.595231
 30
0.0
  0
SPLINE
  5
158
100
AcDbEntity
  8
0
 62
7
100
AcDbSpline
 70
8
 71
3
 72
8
 73
4
 74
0
 40
0
 40
0
 40
0
 40
0
 40
1
 40
1
 40
1
 40
1
 10
24.092991
 20
70.595231
 30
0.0
 10
23.344969
 20
69.764294
 30
0.0
 10
23.296778
 20
69.749305
 30
0.0
 10
22.836220
 20
70.204378
 30
0.0
  0
SPLINE
  5
159
100
AcDbEntity
  8
0
 62
7
100
AcDbSpline
 70
8
 71
3
 72
8
 73
4
 74
0
 40
0
 40
0
 40
0
 40
0
 40
1
 40
1
 40
1
 40
1
 10
22.836220
 20
70.204378
 30
0.0
 10
22.446333
 20
70.589624
 30
0.0
 10
22.362095
 20
71.081503
 30
0.0
 10
22.383108
 20
72.850211
 30
0.0
  0
LWPOLYLINE
  5
15a
100
AcDbEntity
  8
0
 62
7
100
AcDbPolyline
 90
3
 70
0
 10
38.891919
 20
22.767618
 30
0.0
 10
38.881997
 20
20.783243
 30
0.0
 10
38.385353
 20
21.429419
 30
0.0
  0
SPLINE
  5
15b
100
AcDbEntity
  8
0
 62
7
100
AcDbSpline
 70
8
 71
3
 72
8
 73
4
 74
0
 40
0
 40
0
 40
0
 40
0
 40
1
 40
1
 40
1
 40
1
 10
22.035454
 20
73.832201
 30
0.0
 10
21.783983
 20
73.030522
 30
0.0
 10
21.711561
 20
72.036551
 30
0.0
 10
21.813759
 20
70.789493
 30
0.0
  0
SPLINE
  5
15c
100
AcDbEntity
  8
0
 62
7
100
AcDbSpline
 70
8
 71
3
 72
8
 73
4
 74
0
 40
0
 40
0
 40
0
 40
0
 40
1
 40
1
 40
1
 40
1
 10
21.813759
 20
70.789493
 30
0.0
 10
21.951517
 20
69.108518
 30
0.0
 10
21.891970
 20
68.782438
 30
0.0
 10
21.169237
 20
67.260007
 30
0.0
  0
SPLINE
  5
15d
100
AcDbEntity
  8
0
 62
7
100
AcDbSpline
 70
8
 71
3
 72
8
 73
4
 74
0
 40
0
 40
0
 40
0
 40
0
 40
1
 40
1
 40
1
 40
1
 10
21.169237
 20
67.260007
 30
0.0
 10
20.731269
 20
66.337437
 30
0.0
 10
20.373598
 20
65.325405
 30
0.0
 10
20.374407
 20
65.011049
 30
0.0
  0
SPLINE
  5
15e
100
AcDbEntity
  8
0
 62
7
100
AcDbSpline
 70
8
 71
3
 72
8
 73
4
 74
0
 40
0
 40
0
 40
0
 40
0
 40
1
 40
1
 40
1
 40
1
 10
20.374407
 20
65.011049
 30
0.0
 10
20.377106
 20
63.965651
 30
0.0
 10
20.914464
 20
62.481023
 30
0.0
 10
21.573727
 20
61.697537
 30
0.0
  0
SPLINE
  5
15f
100
AcDbEntity
  8
0
 62
7
100
AcDbSpline
 70
8
 71
3
 72
8
 73
4
 74
0
 40
0
 40
0
 40
0
 40
0
 40
1
 40
1
 40
1
 40
1
 10
21.573727
 20
61.697537
 30
0.0
 10
22.410156
 20
60.703497
 30
0.0
 10
22.396692
 20
60.447267
 30
0.0
 10
21.365121
 20
57.727416
 30
0.0
  0
LWPOLYLINE
  5
160
100
AcDbEntity
  8
0
 62
7
100
AcDbPolyline
 90
3
 70
0
 10
22.383108
 20
72.850211
 30
0.0
 10
22.408931
 20
75.022826
 30
0.0
 10
22.035454
 20
73.832201
 30
0.0
  0
SPLINE
  5
161
100
AcDbEntity
  8
0
 62
7
100
AcDbSpline
 70
8
 71
3
 72
8
 73
4
 74
0
 40
0
 40
0
 40
0
 40
0
 40
1
 40
1
 40
1
 40
1
 10
20.161653
 20
57.568600
 30
0.0
 10
19.972688
 20
58.728216
 30
0.0
 10
19.209061
 20
62.117774
 30
0.0
 10
18.464703
 20
65.100951
 30
0.0
  0
SPLINE
  5
162
100
AcDbEntity
  8
0
 62
7
100
AcDbSpline
 70
8
 71
3
 72
8
 73
4
 74
0
 40
0
 40
0
 40
0
 40
0
 40
1
 40
1
 40
1
 40
1
 10
18.464703
 20
65.100951
 30
0.0
 10
17.210610
 20
70.126998
 30
0.0
 10
17.102324
 20
70.816703
 30
0.0
 10
16.988664
 20
74.502335
 30
0.0
  0
SPLINE
  5
163
100
AcDbEntity
  8
0
 62
7
100
AcDbSpline
 70
8
 71
3
 72
8
 73
4
 74
0
 40
0
 40
0
 40
0
 40
0
 40
1
 40
1
 40
1
 40
1
 10
16.988664
 20
74.502335
 30
0.0
 10
16.842789
 20
79.232654
 30
0.0
 10
17.151878
 20
81.846235
 30
0.0
 10
18.274113
 20
85.371787
 30
0.0
  0
SPLINE
  5
164
100
AcDbEntity
  8
0
 62
7
100
AcDbSpline
 70
8
 71
3
 72
8
 73
4
 74
0
 40
0
 40
0
 40
0
 40
0
 40
1
 40
1
 40
1
 40
1
 10
18.274113
 20
85.371787
 30
0.0
 10
20.026419
 20
90.876729
 30
0.0
 10
22.474924
 20
95.008372
 30
0.0
 10
26.181678
 20
98.715125
 30
0.0
  0
SPLINE
  5
165
100
AcDbEntity
  8
0
 62
7
100
AcDbSpline
 70
8
 71
3
 72
8
 73
4
 74
0
 40
0
 40
0
 40
0
 40
0
 40
1
 40
1
 40
1
 40
1
 10
26.181678
 20
98.715125
 30
0.0
 10
31.892108
 20
104.425558
 30
0.0
 10
40.055760
 20
107.946493
 30
0.0
 10
50.168477
 20
109.060492
 30
0.0
  0
SPLINE
  5
166
100
AcDbEntity
  8
0
 62
7
100
AcDbSpline
 70
8
 71
3
 72
8
 73
4
 74
0
 40
0
 40
0
 40
0
 40
0
 40
1
 40
1
 40
1
 40
1
 10
50.168477
 20
109.060492
 30
0.0
 10
53.644223
 20
109.443373
 30
0.0
 10
59.885199
 20
109.043109
 30
0.0
 10
64.029183
 20
108.171532
 30
0.0
  0
SPLINE
  5
167
100
AcDbEntity
  8
0
 62
7
100
AcDbSpline
 70
8
 71
3
 72
8
 73
4
 74
0
 40
0
 40
0
 40
0
 40
0
 40
1
 40
1
 40
1
 40
1
 10
64.029183
 20
108.171532
 30
0.0
 10
71.510231
 20
106.598094
 30
0.0
 10
77.815178
 20
103.399406
 30
0.0
 10
82.368012
 20
98.867697
 30
0.0
  0
SPLINE
  5
168
100
AcDbEntity
  8
0
 62
7
100
AcDbSpline
 70
8
 71
3
 72
8
 73
4
 74
0
 40
0
 40
0
 40
0
 40
0
 40
1
 40
1
 40
1
 40
1
 10
82.368012
 20
98.867697
 30
0.0
 10
87.411962
 20
93.847150
 30
0.0
 10
90.876956
 20
86.654595
 30
0.0
 10
91.560888
 20
79.785326
 30
0.0
  0
SPLINE
  5
169
100
AcDbEntity
  8
0
 62
7
100
AcDbSpline
 70
8
 71
3
 72
8
 73
4
 74
0
 40
0
 40
0
 40
0
 40
0
 40
1
 40
1
 40
1
 40
1
 10
91.560888
 20
79.785326
 30
0.0
 10
92.028484
 20
75.088896
 30
0.0
 10
91.662642
 20
70.909820
 30
0.0
 10
90.332470
 20
65.752861
 30
0.0
  0
SPLINE
  5
16a
100
AcDbEntity
  8
0
 62
7
100
AcDbSpline
 70
8
 71
3
 72
8
 73
4
 74
0
 40
0
 40
0
 40
0
 40
0
 40
1
 40
1
 40
1
 40
1
 10
90.332470
 20
65.752861
 30
0.0
 10
89.693014
 20
63.273755
 30
0.0
 10
88.944439
 20
59.940005
 30
0.0
 10
88.668971
 20
58.344528
 30
0.0
  0
SPLINE
  5
16b
100
AcDbEntity
  8
0
 62
7
100
AcDbSpline
 70
8
 71
3
 72
8
 73
4
 74
0
 40
0
 40
0
 40
0
 40
0
 40
1
 40
1
 40
1
 40
1
 10
88.668971
 20
58.344528
 30
0.0
 10
88.343764
 20
56.460969
 30
0.0
 10
88.104999
 20
55.629233
 30
0.0
 10
87.988129
 20
55.972826
 30
0.0
  0
SPLINE
  5
16c
100
AcDbEntity
  8
0
 62
7
100
AcDbSpline
 70
8
 71
3
 72
8
 73
4
 74
0
 40
0
 40
0
 40
0
 40
0
 40
1
 40
1
 40
1
 40
1
 10
87.988129
 20
55.972826
 30
0.0
 10
87.889138
 20
56.263868
 30
0.0
 10
87.457539
 20
57.394962
 30
0.0
 10
87.029023
 20
58.486368
 30
0.0
  0
SPLINE
  5
16d
100
AcDbEntity
  8
0
 62
7
100
AcDbSpline
 70
8
 71
3
 72
8
 73
4
 74
0
 40
0
 40
0
 40
0
 40
0
 40
1
 40
1
 40
1
 40
1
 10
87.029023
 20
58.486368
 30
0.0
 10
86.600506
 20
59.577774
 30
0.0
 10
86.250867
 20
60.538595
 30
0.0
 10
86.252042
 20
60.621526
 30
0.0
  0
SPLINE
  5
16e
100
AcDbEntity
  8
0
 62
7
100
AcDbSpline
 70
8
 71
3
 72
8
 73
4
 74
0
 40
0
 40
0
 40
0
 40
0
 40
1
 40
1
 40
1
 40
1
 10
86.252042
 20
60.621526
 30
0.0
 10
86.253100
 20
60.704457
 30
0.0
 10
86.606380
 20
61.166796
 30
0.0
 10
87.036841
 20
61.648946
 30
0.0
  0
SPLINE
  5
16f
100
AcDbEntity
  8
0
 62
7
100
AcDbSpline
 70
8
 71
3
 72
8
 73
4
 74
0
 40
0
 40
0
 40
0
 40
0
 40
1
 40
1
 40
1
 40
1
 10
87.036841
 20
61.648946
 30
0.0
 10
87.513229
 20
62.182534
 30
0.0
 10
87.942063
 20
63.073240
 30
0.0
 10
88.132698
 20
63.925088
 30
0.0
  0
SPLINE
  5
170
100
AcDbEntity
  8
0
 62
7
100
AcDbSpline
 70
8
 71
3
 72
8
 73
4
 74
0
 40
0
 40
0
 40
0
 40
0
 40
1
 40
1
 40
1
 40
1
 10
88.132698
 20
63.925088
 30
0.0
 10
88.431613
 20
65.260781
 30
0.0
 10
88.408597
 20
65.401926
 30
0.0
 10
87.627989
 20
67.020466
 30
0.0
  0
SPLINE
  5
171
100
AcDbEntity
  8
0
 62
7
100
AcDbSpline
 70
8
 71
3
 72
8
 73
4
 74
0
 40
0
 40
0
 40
0
 40
0
 40
1
 40
1
 40
1
 40
1
 10
87.627989
 20
67.020466
 30
0.0
 10
86.896178
 20
68.537833
 30
0.0
 10
86.811593
 20
68.964699
 30
0.0
 10
86.824405
 20
71.075833
 30
0.0
  0
SPLINE
  5
172
100
AcDbEntity
  8
0
 62
7
100
AcDbSpline
 70
8
 71
3
 72
8
 73
4
 74
0
 40
0
 40
0
 40
0
 40
0
 40
1
 40
1
 40
1
 40
1
 10
86.824405
 20
71.075833
 30
0.0
 10
86.836470
 20
73.065029
 30
0.0
 10
86.526127
 20
74.890535
 30
0.0
 10
86.175874
 20
74.890535
 30
0.0
  0
SPLINE
  5
173
100
AcDbEntity
  8
0
 62
7
100
AcDbSpline
 70
8
 71
3
 72
8
 73
4
 74
0
 40
0
 40
0
 40
0
 40
0
 40
1
 40
1
 40
1
 40
1
 10
86.175874
 20
74.890535
 30
0.0
 10
86.125600
 20
74.890535
 30
0.0
 10
86.155739
 20
74.324988
 30
0.0
 10
86.242842
 20
73.633764
 30
0.0
  0
SPLINE
  5
174
100
AcDbEntity
  8
0
 62
7
100
AcDbSpline
 70
8
 71
3
 72
8
 73
4
 74
0
 40
0
 40
0
 40
0
 40
0
 40
1
 40
1
 40
1
 40
1
 10
86.242842
 20
73.633764
 30
0.0
 10
86.421447
 20
72.216455
 30
0.0
 10
86.204952
 20
70.502137
 30
0.0
 10
85.795673
 20
70.092858
 30
0.0
  0
SPLINE
  5
175
100
AcDbEntity
  8
0
 62
7
100
AcDbSpline
 70
8
 71
3
 72
8
 73
4
 74
0
 40
0
 40
0
 40
0
 40
0
 40
1
 40
1
 40
1
 40
1
 10
85.795673
 20
70.092858
 30
0.0
 10
85.433014
 20
69.730199
 30
0.0
 10
84.532044
 20
70.293841
 30
0.0
 10
84.156344
 20
71.118413
 30
0.0
  0
SPLINE
  5
176
100
AcDbEntity
  8
0
 62
7
100
AcDbSpline
 70
8
 71
3
 72
8
 73
4
 74
0
 40
0
 40
0
 40
0
 40
0
 40
1
 40
1
 40
1
 40
1
 10
84.156344
 20
71.118413
 30
0.0
 10
83.710177
 20
72.097643
 30
0.0
 10
83.823474
 20
74.328547
 30
0.0
 10
84.421861
 20
76.346584
 30
0.0
  0
SPLINE
  5
177
100
AcDbEntity
  8
0
 62
7
100
AcDbSpline
 70
8
 71
3
 72
8
 73
4
 74
0
 40
0
 40
0
 40
0
 40
0
 40
1
 40
1
 40
1
 40
1
 10
84.421861
 20
76.346584
 30
0.0
 10
85.123586
 20
78.713132
 30
0.0
 10
85.377819
 20
83.355569
 30
0.0
 10
84.945916
 20
85.916177
 30
0.0
  0
SPLINE
  5
178
100
AcDbEntity
  8
0
 62
7
100
AcDbSpline
 70
8
 71
3
 72
8
 73
4
 74
0
 40
0
 40
0
 40
0
 40
0
 40
1
 40
1
 40
1
 40
1
 10
84.945916
 20
85.916177
 30
0.0
 10
84.497042
 20
88.577396
 30
0.0
 10
83.381982
 20
90.807450
 30
0.0
 10
81.999434
 20
91.808964
 30
0.0
  0
SPLINE
  5
179
100
AcDbEntity
  8
0
 62
7
100
AcDbSpline
 70
8
 71
3
 72
8
 73
4
 74
0
 40
0
 40
0
 40
0
 40
0
 40
1
 40
1
 40
1
 40
1
 10
81.999434
 20
91.808964
 30
0.0
 10
80.725338
 20
92.731915
 30
0.0
 10
79.799405
 20
92.944474
 30
0.0
 10
80.493806
 20
92.154597
 30
0.0
  0
SPLINE
  5
17a
100
AcDbEntity
  8
0
 62
7
100
AcDbSpline
 70
8
 71
3
 72
8
 73
4
 74
0
 40
0
 40
0
 40
0
 40
0
 40
1
 40
1
 40
1
 40
1
 10
80.493806
 20
92.154597
 30
0.0
 10
81.195180
 20
91.356791
 30
0.0
 10
81.986252
 20
89.567515
 30
0.0
 10
82.707909
 20
87.146657
 30
0.0
  0
SPLINE
  5
17b
100
AcDbEntity
  8
0
 62
7
100
AcDbSpline
 70
8
 71
3
 72
8
 73
4
 74
0
 40
0
 40
0
 40
0
 40
0
 40
1
 40
1
 40
1
 40
1
 10
82.707909
 20
87.146657
 30
0.0
 10
83.246211
 20
85.340883
 30
0.0
 10
83.434267
 20
84.032191
 30
0.0
 10
83.538544
 20
81.366209
 30
0.0
  0
SPLINE
  5
17c
100
AcDbEntity
  8
0
 62
7
100
AcDbSpline
 70
8
 71
3
 72
8
 73
4
 74
0
 40
0
 40
0
 40
0
 40
0
 40
1
 40
1
 40
1
 40
1
 10
83.538544
 20
81.366209
 30
0.0
 10
83.671817
 20
77.958947
 30
0.0
 10
83.662509
 20
77.886502
 30
0.0
 10
82.714804
 20
74.954953
 30
0.0
  0
SPLINE
  5
17d
100
AcDbEntity
  8
0
 62
7
100
AcDbSpline
 70
8
 71
3
 72
8
 73
4
 74
0
 40
0
 40
0
 40
0
 40
0
 40
1
 40
1
 40
1
 40
1
 10
82.714804
 20
74.954953
 30
0.0
 10
82.187608
 20
73.324175
 30
0.0
 10
81.755102
 20
71.838873
 30
0.0
 10
81.753681
 20
71.654281
 30
0.0
  0
SPLINE
  5
17e
100
AcDbEntity
  8
0
 62
7
100
AcDbSpline
 70
8
 71
3
 72
8
 73
4
 74
0
 40
0
 40
0
 40
0
 40
0
 40
1
 40
1
 40
1
 40
1
 10
81.753681
 20
71.654281
 30
0.0
 10
81.748125
 20
70.933551
 30
0.0
 10
80.449756
 20
68.610798
 30
0.0
 10
79.378167
 20
67.404562
 30
0.0
  0
SPLINE
  5
17f
100
AcDbEntity
  8
0
 62
7
100
AcDbSpline
 70
8
 71
3
 72
8
 73
4
 74
0
 40
0
 40
0
 40
0
 40
0
 40
1
 40
1
 40
1
 40
1
 10
79.378167
 20
67.404562
 30
0.0
 10
78.758486
 20
66.707017
 30
0.0
 10
78.314428
 20
66.073343
 30
0.0
 10
78.391372
 20
65.996399
 30
0.0
  0
SPLINE
  5
180
100
AcDbEntity
  8
0
 62
7
100
AcDbSpline
 70
8
 71
3
 72
8
 73
4
 74
0
 40
0
 40
0
 40
0
 40
0
 40
1
 40
1
 40
1
 40
1
 10
78.391372
 20
65.996399
 30
0.0
 10
78.636011
 20
65.751763
 30
0.0
 10
80.524765
 20
67.107737
 30
0.0
 10
81.704220
 20
68.374760
 30
0.0
  0
SPLINE
  5
181
100
AcDbEntity
  8
0
 62
7
100
AcDbSpline
 70
8
 71
3
 72
8
 73
4
 74
0
 40
0
 40
0
 40
0
 40
0
 40
1
 40
1
 40
1
 40
1
 10
81.704220
 20
68.374760
 30
0.0
 10
82.828040
 20
69.582017
 30
0.0
 10
82.852760
 20
69.592724
 30
0.0
 10
83.610995
 20
69.200625
 30
0.0
  0
SPLINE
  5
182
100
AcDbEntity
  8
0
 62
7
100
AcDbSpline
 70
8
 71
3
 72
8
 73
4
 74
0
 40
0
 40
0
 40
0
 40
0
 40
1
 40
1
 40
1
 40
1
 10
83.610995
 20
69.200625
 30
0.0
 10
84.033503
 20
68.982138
 30
0.0
 10
84.801064
 20
68.250866
 30
0.0
 10
85.316687
 20
67.575576
 30
0.0
  0
SPLINE
  5
183
100
AcDbEntity
  8
0
 62
7
100
AcDbSpline
 70
8
 71
3
 72
8
 73
4
 74
0
 40
0
 40
0
 40
0
 40
0
 40
1
 40
1
 40
1
 40
1
 10
85.316687
 20
67.575576
 30
0.0
 10
86.152244
 20
66.481277
 30
0.0
 10
86.254183
 20
66.173316
 30
0.0
 10
86.254183
 20
64.743330
 30
0.0
  0
SPLINE
  5
184
100
AcDbEntity
  8
0
 62
7
100
AcDbSpline
 70
8
 71
3
 72
8
 73
4
 74
0
 40
0
 40
0
 40
0
 40
0
 40
1
 40
1
 40
1
 40
1
 10
86.254183
 20
64.743330
 30
0.0
 10
86.254183
 20
63.274080
 30
0.0
 10
86.177654
 20
63.059916
 30
0.0
 10
85.345958
 20
62.201690
 30
0.0
  0
LWPOLYLINE
  5
185
100
AcDbEntity
  8
0
 62
7
100
AcDbPolyline
 90
3
 70
0
 10
21.365121
 20
57.727416
 30
0.0
 10
20.505225
 20
55.460207
 30
0.0
 10
20.161653
 20
57.568600
 30
0.0
  0
SPLINE
  5
186
100
AcDbEntity
  8
0
 62
7
100
AcDbSpline
 70
8
 71
3
 72
8
 73
4
 74
0
 40
0
 40
0
 40
0
 40
0
 40
1
 40
1
 40
1
 40
1
 10
84.786372
 20
59.941576
 30
0.0
 10
85.759618
 20
56.248588
 30
0.0
 10
86.690144
 20
53.581901
 30
0.0
 10
87.925421
 20
50.945743
 30
0.0
  0
SPLINE
  5
187
100
AcDbEntity
  8
0
 62
7
100
AcDbSpline
 70
8
 71
3
 72
8
 73
4
 74
0
 40
0
 40
0
 40
0
 40
0
 40
1
 40
1
 40
1
 40
1
 10
87.925421
 20
50.945743
 30
0.0
 10
89.090241
 20
48.459943
 30
0.0
 10
89.289549
 20
47.803718
 30
0.0
 10
89.291504
 20
46.447826
 30
0.0
  0
SPLINE
  5
188
100
AcDbEntity
  8
0
 62
7
100
AcDbSpline
 70
8
 71
3
 72
8
 73
4
 74
0
 40
0
 40
0
 40
0
 40
0
 40
1
 40
1
 40
1
 40
1
 10
89.291504
 20
46.447826
 30
0.0
 10
89.293091
 20
45.285102
 30
0.0
 10
89.141803
 20
44.612541
 30
0.0
 10
88.725756
 20
43.934285
 30
0.0
  0
SPLINE
  5
189
100
AcDbEntity
  8
0
 62
7
100
AcDbSpline
 70
8
 71
3
 72
8
 73
4
 74
0
 40
0
 40
0
 40
0
 40
0
 40
1
 40
1
 40
1
 40
1
 10
88.725756
 20
43.934285
 30
0.0
 10
87.834875
 20
42.481937
 30
0.0
 10
86.825204
 20
39.895537
 30
0.0
 10
86.119060
 20
37.256903
 30
0.0
  0
SPLINE
  5
18a
100
AcDbEntity
  8
0
 62
7
100
AcDbSpline
 70
8
 71
3
 72
8
 73
4
 74
0
 40
0
 40
0
 40
0
 40
0
 40
1
 40
1
 40
1
 40
1
 10
86.119060
 20
37.256903
 30
0.0
 10
85.762690
 20
35.925263
 30
0.0
 10
85.285808
 20
34.650490
 30
0.0
 10
85.059322
 20
34.424075
 30
0.0
  0
SPLINE
  5
18b
100
AcDbEntity
  8
0
 62
7
100
AcDbSpline
 70
8
 71
3
 72
8
 73
4
 74
0
 40
0
 40
0
 40
0
 40
0
 40
1
 40
1
 40
1
 40
1
 10
85.059322
 20
34.424075
 30
0.0
 10
84.708489
 20
34.073349
 30
0.0
 10
83.659980
 20
34.012410
 30
0.0
 10
77.976378
 20
34.012410
 30
0.0
  0
SPLINE
  5
18c
100
AcDbEntity
  8
0
 62
7
100
AcDbSpline
 70
8
 71
3
 72
8
 73
4
 74
0
 40
0
 40
0
 40
0
 40
0
 40
1
 40
1
 40
1
 40
1
 10
77.976378
 20
34.012410
 30
0.0
 10
69.882380
 20
34.012410
 30
0.0
 10
70.263390
 20
34.150385
 30
0.0
 10
68.211261
 20
30.476179
 30
0.0
  0
SPLINE
  5
18d
100
AcDbEntity
  8
0
 62
7
100
AcDbSpline
 70
8
 71
3
 72
8
 73
4
 74
0
 40
0
 40
0
 40
0
 40
0
 40
1
 40
1
 40
1
 40
1
 10
68.211261
 20
30.476179
 30
0.0
 10
67.439088
 20
29.093647
 30
0.0
 10
66.762193
 20
27.848925
 30
0.0
 10
66.707054
 20
27.710125
 30
0.0
  0
SPLINE
  5
18e
100
AcDbEntity
  8
0
 62
7
100
AcDbSpline
 70
8
 71
3
 72
8
 73
4
 74
0
 40
0
 40
0
 40
0
 40
0
 40
1
 40
1
 40
1
 40
1
 10
66.707054
 20
27.710125
 30
0.0
 10
66.651915
 20
27.571327
 30
0.0
 10
67.156621
 20
27.836051
 30
0.0
 10
67.828626
 20
28.298402
 30
0.0
  0
SPLINE
  5
18f
100
AcDbEntity
  8
0
 62
7
100
AcDbSpline
 70
8
 71
3
 72
8
 73
4
 74
0
 40
0
 40
0
 40
0
 40
0
 40
1
 40
1
 40
1
 40
1
 10
67.828626
 20
28.298402
 30
0.0
 10
69.587467
 20
29.508516
 30
0.0
 10
70.974540
 20
29.928312
 30
0.0
 10
73.793779
 20
30.103749
 30
0.0
  0
SPLINE
  5
190
100
AcDbEntity
  8
0
 62
7
100
AcDbSpline
 70
8
 71
3
 72
8
 73
4
 74
0
 40
0
 40
0
 40
0
 40
0
 40
1
 40
1
 40
1
 40
1
 10
73.793779
 20
30.103749
 30
0.0
 10
76.640193
 20
30.280880
 30
0.0
 10
76.814566
 20
30.009290
 30
0.0
 10
74.512498
 20
28.984326
 30
0.0
  0
SPLINE
  5
191
100
AcDbEntity
  8
0
 62
7
100
AcDbSpline
 70
8
 71
3
 72
8
 73
4
 74
0
 40
0
 40
0
 40
0
 40
0
 40
1
 40
1
 40
1
 40
1
 10
74.512498
 20
28.984326
 30
0.0
 10
72.406865
 20
28.046826
 30
0.0
 10
71.779350
 20
27.113714
 30
0.0
 10
71.310394
 20
24.222826
 30
0.0
  0
SPLINE
  5
192
100
AcDbEntity
  8
0
 62
7
100
AcDbSpline
 70
8
 71
3
 72
8
 73
4
 74
0
 40
0
 40
0
 40
0
 40
0
 40
1
 40
1
 40
1
 40
1
 10
71.310394
 20
24.222826
 30
0.0
 10
71.093719
 20
22.887117
 30
0.0
 10
70.144344
 20
20.865923
 30
0.0
 10
69.826031
 20
21.062651
 30
0.0
  0
SPLINE
  5
193
100
AcDbEntity
  8
0
 62
7
100
AcDbSpline
 70
8
 71
3
 72
8
 73
4
 74
0
 40
0
 40
0
 40
0
 40
0
 40
1
 40
1
 40
1
 40
1
 10
69.826031
 20
21.062651
 30
0.0
 10
69.693703
 20
21.144434
 30
0.0
 10
69.585433
 20
22.180635
 30
0.0
 10
69.585433
 20
23.365317
 30
0.0
  0
SPLINE
  5
194
100
AcDbEntity
  8
0
 62
7
100
AcDbSpline
 70
8
 71
3
 72
8
 73
4
 74
0
 40
0
 40
0
 40
0
 40
0
 40
1
 40
1
 40
1
 40
1
 10
69.585433
 20
23.365317
 30
0.0
 10
69.585433
 20
25.914750
 30
0.0
 10
69.193286
 20
25.867024
 30
0.0
 10
68.825909
 20
23.272877
 30
0.0
  0
SPLINE
  5
195
100
AcDbEntity
  8
0
 62
7
100
AcDbSpline
 70
8
 71
3
 72
8
 73
4
 74
0
 40
0
 40
0
 40
0
 40
0
 40
1
 40
1
 40
1
 40
1
 10
68.825909
 20
23.272877
 30
0.0
 10
68.584588
 20
21.568836
 30
0.0
 10
68.689604
 20
20.591621
 30
0.0
 10
69.353636
 20
18.362123
 30
0.0
  0
SPLINE
  5
196
100
AcDbEntity
  8
0
 62
7
100
AcDbSpline
 70
8
 71
3
 72
8
 73
4
 74
0
 40
0
 40
0
 40
0
 40
0
 40
1
 40
1
 40
1
 40
1
 10
69.353636
 20
18.362123
 30
0.0
 10
69.637458
 20
17.409194
 30
0.0
 10
69.620387
 20
17.171831
 30
0.0
 10
69.224581
 20
16.567756
 30
0.0
  0
SPLINE
  5
197
100
AcDbEntity
  8
0
 62
7
100
AcDbSpline
 70
8
 71
3
 72
8
 73
4
 74
0
 40
0
 40
0
 40
0
 40
0
 40
1
 40
1
 40
1
 40
1
 10
69.224581
 20
16.567756
 30
0.0
 10
68.973700
 20
16.184864
 30
0.0
 10
68.651564
 20
15.943821
 30
0.0
 10
68.508721
 20
16.032102
 30
0.0
  0
SPLINE
  5
198
100
AcDbEntity
  8
0
 62
7
100
AcDbSpline
 70
8
 71
3
 72
8
 73
4
 74
0
 40
0
 40
0
 40
0
 40
0
 40
1
 40
1
 40
1
 40
1
 10
68.508721
 20
16.032102
 30
0.0
 10
68.365878
 20
16.120385
 30
0.0
 10
67.781747
 20
17.106442
 30
0.0
 10
67.210654
 20
18.223346
 30
0.0
  0
SPLINE
  5
199
100
AcDbEntity
  8
0
 62
7
100
AcDbSpline
 70
8
 71
3
 72
8
 73
4
 74
0
 40
0
 40
0
 40
0
 40
0
 40
1
 40
1
 40
1
 40
1
 10
67.210654
 20
18.223346
 30
0.0
 10
65.964202
 20
20.661061
 30
0.0
 10
65.815739
 20
20.084211
 30
0.0
 10
66.973696
 20
17.302668
 30
0.0
  0
SPLINE
  5
19a
100
AcDbEntity
  8
0
 62
7
100
AcDbSpline
 70
8
 71
3
 72
8
 73
4
 74
0
 40
0
 40
0
 40
0
 40
0
 40
1
 40
1
 40
1
 40
1
 10
66.973696
 20
17.302668
 30
0.0
 10
67.731211
 20
15.483038
 30
0.0
 10
67.765718
 20
15.278261
 30
0.0
 10
67.379858
 20
14.892401
 30
0.0
  0
SPLINE
  5
19b
100
AcDbEntity
  8
0
 62
7
100
AcDbSpline
 70
8
 71
3
 72
8
 73
4
 74
0
 40
0
 40
0
 40
0
 40
0
 40
1
 40
1
 40
1
 40
1
 10
67.379858
 20
14.892401
 30
0.0
 10
66.993998
 20
14.506541
 30
0.0
 10
66.912733
 20
14.570276
 30
0.0
 10
66.423368
 20
15.642603
 30
0.0
  0
LWPOLYLINE
  5
19c
100
AcDbEntity
  8
0
 62
7
100
AcDbPolyline
 90
3
 70
0
 10
85.345958
 20
62.201690
 30
0.0
 10
84.437733
 20
61.264493
 30
0.0
 10
84.786372
 20
59.941576
 30
0.0
  0
SPLINE
  5
19d
100
AcDbEntity
  8
0
 62
7
100
AcDbSpline
 70
8
 71
3
 72
8
 73
4
 74
0
 40
0
 40
0
 40
0
 40
0
 40
1
 40
1
 40
1
 40
1
 10
65.378171
 20
12.898406
 30
0.0
 10
64.424613
 20
12.422709
 30
0.0
 10
64.307622
 20
12.540017
 30
0.0
 10
63.781538
 20
14.499389
 30
0.0
  0
SPLINE
  5
19e
100
AcDbEntity
  8
0
 62
7
100
AcDbSpline
 70
8
 71
3
 72
8
 73
4
 74
0
 40
0
 40
0
 40
0
 40
0
 40
1
 40
1
 40
1
 40
1
 10
63.781538
 20
14.499389
 30
0.0
 10
63.615483
 20
15.117852
 30
0.0
 10
63.381133
 20
15.623868
 30
0.0
 10
63.260761
 20
15.623868
 30
0.0
  0
SPLINE
  5
19f
100
AcDbEntity
  8
0
 62
7
100
AcDbSpline
 70
8
 71
3
 72
8
 73
4
 74
0
 40
0
 40
0
 40
0
 40
0
 40
1
 40
1
 40
1
 40
1
 10
63.260761
 20
15.623868
 30
0.0
 10
63.140389
 20
15.623868
 30
0.0
 10
63.139794
 20
15.117852
 30
0.0
 10
63.259438
 20
14.499389
 30
0.0
  0
SPLINE
  5
1a0
100
AcDbEntity
  8
0
 62
7
100
AcDbSpline
 70
8
 71
3
 72
8
 73
4
 74
0
 40
0
 40
0
 40
0
 40
0
 40
1
 40
1
 40
1
 40
1
 10
63.259438
 20
14.499389
 30
0.0
 10
63.379083
 20
13.880925
 30
0.0
 10
63.482159
 20
12.928425
 30
0.0
 10
63.488496
 20
12.382722
 30
0.0
  0
SPLINE
  5
1a1
100
AcDbEntity
  8
0
 62
7
100
AcDbSpline
 70
8
 71
3
 72
8
 73
4
 74
0
 40
0
 40
0
 40
0
 40
0
 40
1
 40
1
 40
1
 40
1
 10
63.488496
 20
12.382722
 30
0.0
 10
63.499503
 20
11.435670
 30
0.0
 10
63.460572
 20
11.390535
 30
0.0
 10
62.632849
 20
11.390535
 30
0.0
  0
SPLINE
  5
1a2
100
AcDbEntity
  8
0
 62
7
100
AcDbSpline
 70
8
 71
3
 72
8
 73
4
 74
0
 40
0
 40
0
 40
0
 40
0
 40
1
 40
1
 40
1
 40
1
 10
62.632849
 20
11.390535
 30
0.0
 10
62.155903
 20
11.390535
 30
0.0
 10
61.493360
 20
11.199797
 30
0.0
 10
61.160530
 20
10.966672
 30
0.0
  0
SPLINE
  5
1a3
100
AcDbEntity
  8
0
 62
7
100
AcDbSpline
 70
8
 71
3
 72
8
 73
4
 74
0
 40
0
 40
0
 40
0
 40
0
 40
1
 40
1
 40
1
 40
1
 10
61.160530
 20
10.966672
 30
0.0
 10
60.827698
 20
10.733548
 30
0.0
 10
60.516185
 20
10.584720
 30
0.0
 10
60.468277
 20
10.635943
 30
0.0
  0
SPLINE
  5
1a4
100
AcDbEntity
  8
0
 62
7
100
AcDbSpline
 70
8
 71
3
 72
8
 73
4
 74
0
 40
0
 40
0
 40
0
 40
0
 40
1
 40
1
 40
1
 40
1
 10
60.468277
 20
10.635943
 30
0.0
 10
60.420369
 20
10.687166
 30
0.0
 10
60.074593
 20
11.800639
 30
0.0
 10
59.699882
 20
13.110326
 30
0.0
  0
LWPOLYLINE
  5
1a5
100
AcDbEntity
  8
0
 62
7
100
AcDbPolyline
 90
5
 70
0
 10
66.423368
 20
15.642603
 30
0.0
 10
65.888563
 20
16.814493
 30
0.0
 10
66.044495
 20
15.061549
 30
0.0
 10
66.200430
 20
13.308603
 30
0.0
 10
65.378171
 20
12.898406
 30
0.0
  0
SPLINE
  5
1a6
100
AcDbEntity
  8
0
 62
7
100
AcDbSpline
 70
8
 71
3
 72
8
 73
4
 74
0
 40
0
 40
0
 40
0
 40
0
 40
1
 40
1
 40
1
 40
1
 10
59.176097
 20
12.620091
 30
0.0
 10
59.331857
 20
9.780466
 30
0.0
 10
59.327555
 20
9.751841
 30
0.0
 10
58.788371
 20
10.040403
 30
0.0
  0
SPLINE
  5
1a7
100
AcDbEntity
  8
0
 62
7
100
AcDbSpline
 70
8
 71
3
 72
8
 73
4
 74
0
 40
0
 40
0
 40
0
 40
0
 40
1
 40
1
 40
1
 40
1
 10
58.788371
 20
10.040403
 30
0.0
 10
58.089483
 20
10.414437
 30
0.0
 10
56.477847
 20
10.415886
 30
0.0
 10
55.781302
 20
10.043102
 30
0.0
  0
SPLINE
  5
1a8
100
AcDbEntity
  8
0
 62
7
100
AcDbSpline
 70
8
 71
3
 72
8
 73
4
 74
0
 40
0
 40
0
 40
0
 40
0
 40
1
 40
1
 40
1
 40
1
 10
55.781302
 20
10.043102
 30
0.0
 10
54.993437
 20
9.621449
 30
0.0
 10
54.717847
 20
10.042308
 30
0.0
 10
54.518621
 20
11.971906
 30
0.0
  0
LWPOLYLINE
  5
1a9
100
AcDbEntity
  8
0
 62
7
100
AcDbPolyline
 90
3
 70
0
 10
59.699882
 20
13.110326
 30
0.0
 10
59.018591
 20
15.491576
 30
0.0
 10
59.176097
 20
12.620091
 30
0.0
  0
SPLINE
  5
1aa
100
AcDbEntity
  8
0
 62
7
100
AcDbSpline
 70
8
 71
3
 72
8
 73
4
 74
0
 40
0
 40
0
 40
0
 40
0
 40
1
 40
1
 40
1
 40
1
 10
54.141587
 20
12.184285
 30
0.0
 10
53.771353
 20
9.554197
 30
0.0
 10
53.831080
 20
9.620761
 30
0.0
 10
52.400518
 20
10.243936
 30
0.0
  0
LWPOLYLINE
  5
1ab
100
AcDbEntity
  8
0
 62
7
100
AcDbPolyline
 90
3
 70
0
 10
54.518621
 20
11.971906
 30
0.0
 10
54.346433
 20
13.639493
 30
0.0
 10
54.141587
 20
12.184285
 30
0.0
  0
SPLINE
  5
1ac
100
AcDbEntity
  8
0
 62
7
100
AcDbSpline
 70
8
 71
3
 72
8
 73
4
 74
0
 40
0
 40
0
 40
0
 40
0
 40
1
 40
1
 40
1
 40
1
 10
60.143705
 20
25.819304
 30
0.0
 10
60.740951
 20
27.071741
 30
0.0
 10
60.715803
 20
29.561533
 30
0.0
 10
60.076517
 20
32.471072
 30
0.0
  0
SPLINE
  5
1ad
100
AcDbEntity
  8
0
 62
7
100
AcDbSpline
 70
8
 71
3
 72
8
 73
4
 74
0
 40
0
 40
0
 40
0
 40
0
 40
1
 40
1
 40
1
 40
1
 10
60.076517
 20
32.471072
 30
0.0
 10
59.794331
 20
33.755370
 30
0.0
 10
59.492126
 20
35.353384
 30
0.0
 10
59.404951
 20
36.022214
 30
0.0
  0
SPLINE
  5
1ae
100
AcDbEntity
  8
0
 62
7
100
AcDbSpline
 70
8
 71
3
 72
8
 73
4
 74
0
 40
0
 40
0
 40
0
 40
0
 40
1
 40
1
 40
1
 40
1
 10
59.404951
 20
36.022214
 30
0.0
 10
59.203820
 20
37.565388
 30
0.0
 10
56.394850
 20
43.241299
 30
0.0
 10
55.775749
 20
43.355519
 30
0.0
  0
SPLINE
  5
1af
100
AcDbEntity
  8
0
 62
7
100
AcDbSpline
 70
8
 71
3
 72
8
 73
4
 74
0
 40
0
 40
0
 40
0
 40
0
 40
1
 40
1
 40
1
 40
1
 10
55.775749
 20
43.355519
 30
0.0
 10
55.480778
 20
43.409941
 30
0.0
 10
55.149192
 20
43.093336
 30
0.0
 10
54.805900
 20
42.429478
 30
0.0
  0
LWPOLYLINE
  5
1b0
100
AcDbEntity
  8
0
 62
7
100
AcDbPolyline
 90
1
 70
1
 10
52.400518
 20
10.243936
 30
0.0
  0
SPLINE
  5
1b1
100
AcDbEntity
  8
0
 62
7
100
AcDbSpline
 70
8
 71
3
 72
8
 73
4
 74
0
 40
0
 40
0
 40
0
 40
0
 40
1
 40
1
 40
1
 40
1
 10
54.024900
 20
42.093076
 30
0.0
 10
53.712295
 20
42.903442
 30
0.0
 10
53.035451
 20
43.509761
 30
0.0
 10
52.685127
 20
43.293250
 30
0.0
  0
SPLINE
  5
1b2
100
AcDbEntity
  8
0
 62
7
100
AcDbSpline
 70
8
 71
3
 72
8
 73
4
 74
0
 40
0
 40
0
 40
0
 40
0
 40
1
 40
1
 40
1
 40
1
 10
52.685127
 20
43.293250
 30
0.0
 10
52.180643
 20
42.981459
 30
0.0
 10
50.574067
 20
39.785650
 30
0.0
 10
49.764770
 20
37.484055
 30
0.0
  0
SPLINE
  5
1b3
100
AcDbEntity
  8
0
 62
7
100
AcDbSpline
 70
8
 71
3
 72
8
 73
4
 74
0
 40
0
 40
0
 40
0
 40
0
 40
1
 40
1
 40
1
 40
1
 10
49.764770
 20
37.484055
 30
0.0
 10
48.340809
 20
33.434390
 30
0.0
 10
47.766145
 20
28.541075
 30
0.0
 10
48.432662
 20
26.141056
 30
0.0
  0
SPLINE
  5
1b4
100
AcDbEntity
  8
0
 62
7
100
AcDbSpline
 70
8
 71
3
 72
8
 73
4
 74
0
 40
0
 40
0
 40
0
 40
0
 40
1
 40
1
 40
1
 40
1
 10
48.432662
 20
26.141056
 30
0.0
 10
48.799255
 20
24.821015
 30
0.0
 10
49.477081
 20
24.839710
 30
0.0
 10
50.830972
 20
26.207201
 30
0.0
  0
SPLINE
  5
1b5
100
AcDbEntity
  8
0
 62
7
100
AcDbSpline
 70
8
 71
3
 72
8
 73
4
 74
0
 40
0
 40
0
 40
0
 40
0
 40
1
 40
1
 40
1
 40
1
 10
50.830972
 20
26.207201
 30
0.0
 10
51.407266
 20
26.789285
 30
0.0
 10
52.038197
 20
27.265535
 30
0.0
 10
52.233036
 20
27.265535
 30
0.0
  0
SPLINE
  5
1b6
100
AcDbEntity
  8
0
 62
7
100
AcDbSpline
 70
8
 71
3
 72
8
 73
4
 74
0
 40
0
 40
0
 40
0
 40
0
 40
1
 40
1
 40
1
 40
1
 10
52.233036
 20
27.265535
 30
0.0
 10
52.952391
 20
27.265535
 30
0.0
 10
53.263718
 20
28.143322
 30
0.0
 10
53.611119
 20
31.151044
 30
0.0
  0
SPLINE
  5
1b7
100
AcDbEntity
  8
0
 62
7
100
AcDbSpline
 70
8
 71
3
 72
8
 73
4
 74
0
 40
0
 40
0
 40
0
 40
0
 40
1
 40
1
 40
1
 40
1
 10
53.611119
 20
31.151044
 30
0.0
 10
54.214797
 20
36.377581
 30
0.0
 10
54.528037
 20
36.424812
 30
0.0
 10
55.040588
 20
31.366576
 30
0.0
  0
SPLINE
  5
1b8
100
AcDbEntity
  8
0
 62
7
100
AcDbSpline
 70
8
 71
3
 72
8
 73
4
 74
0
 40
0
 40
0
 40
0
 40
0
 40
1
 40
1
 40
1
 40
1
 10
55.040588
 20
31.366576
 30
0.0
 10
55.401334
 20
27.806457
 30
0.0
 10
55.560598
 20
27.342499
 30
0.0
 10
56.503157
 20
27.105933
 30
0.0
  0
SPLINE
  5
1b9
100
AcDbEntity
  8
0
 62
7
100
AcDbSpline
 70
8
 71
3
 72
8
 73
4
 74
0
 40
0
 40
0
 40
0
 40
0
 40
1
 40
1
 40
1
 40
1
 10
56.503157
 20
27.105933
 30
0.0
 10
56.866597
 20
27.014715
 30
0.0
 10
57.287480
 20
26.709283
 30
0.0
 10
57.438449
 20
26.427192
 30
0.0
  0
SPLINE
  5
1ba
100
AcDbEntity
  8
0
 62
7
100
AcDbSpline
 70
8
 71
3
 72
8
 73
4
 74
0
 40
0
 40
0
 40
0
 40
0
 40
1
 40
1
 40
1
 40
1
 10
57.438449
 20
26.427192
 30
0.0
 10
57.683286
 20
25.969709
 30
0.0
 10
59.163731
 20
24.887820
 30
0.0
 10
59.548392
 20
24.885274
 30
0.0
  0
SPLINE
  5
1bb
100
AcDbEntity
  8
0
 62
7
100
AcDbSpline
 70
8
 71
3
 72
8
 73
4
 74
0
 40
0
 40
0
 40
0
 40
0
 40
1
 40
1
 40
1
 40
1
 10
59.548392
 20
24.885274
 30
0.0
 10
59.630580
 20
24.884745
 30
0.0
 10
59.898470
 20
25.305044
 30
0.0
 10
60.143705
 20
25.819304
 30
0.0
  0
LWPOLYLINE
  5
1bc
100
AcDbEntity
  8
0
 62
7
100
AcDbPolyline
 90
3
 70
0
 10
54.805900
 20
42.429478
 30
0.0
 10
54.284261
 20
41.420743
 30
0.0
 10
54.024900
 20
42.093076
 30
0.0
  0
SPLINE
  5
1bd
100
AcDbEntity
  8
0
 62
7
100
AcDbSpline
 70
8
 71
3
 72
8
 73
4
 74
0
 40
0
 40
0
 40
0
 40
0
 40
1
 40
1
 40
1
 40
1
 10
79.070078
 20
43.541024
 30
0.0
 10
79.266174
 20
44.121120
 30
0.0
 10
79.489662
 20
45.325287
 30
0.0
 10
79.566720
 20
46.216954
 30
0.0
  0
SPLINE
  5
1be
100
AcDbEntity
  8
0
 62
7
100
AcDbSpline
 70
8
 71
3
 72
8
 73
4
 74
0
 40
0
 40
0
 40
0
 40
0
 40
1
 40
1
 40
1
 40
1
 10
79.566720
 20
46.216954
 30
0.0
 10
79.707507
 20
47.846054
 30
0.0
 10
79.307915
 20
49.393761
 30
0.0
 10
77.230925
 20
55.264010
 30
0.0
  0
SPLINE
  5
1bf
100
AcDbEntity
  8
0
 62
7
100
AcDbSpline
 70
8
 71
3
 72
8
 73
4
 74
0
 40
0
 40
0
 40
0
 40
0
 40
1
 40
1
 40
1
 40
1
 10
77.230925
 20
55.264010
 30
0.0
 10
76.761194
 20
56.591629
 30
0.0
 10
76.758358
 20
56.705735
 30
0.0
 10
77.181170
 20
57.266271
 30
0.0
  0
SPLINE
  5
1c0
100
AcDbEntity
  8
0
 62
7
100
AcDbSpline
 70
8
 71
3
 72
8
 73
4
 74
0
 40
0
 40
0
 40
0
 40
0
 40
1
 40
1
 40
1
 40
1
 10
77.181170
 20
57.266271
 30
0.0
 10
77.427770
 20
57.593196
 30
0.0
 10
78.275072
 20
58.263967
 30
0.0
 10
79.064062
 20
58.756875
 30
0.0
  0
SPLINE
  5
1c1
100
AcDbEntity
  8
0
 62
7
100
AcDbSpline
 70
8
 71
3
 72
8
 73
4
 74
0
 40
0
 40
0
 40
0
 40
0
 40
1
 40
1
 40
1
 40
1
 10
79.064062
 20
58.756875
 30
0.0
 10
80.090494
 20
59.398120
 30
0.0
 10
80.634454
 20
59.957549
 30
0.0
 10
80.976174
 20
60.723365
 30
0.0
  0
SPLINE
  5
1c2
100
AcDbEntity
  8
0
 62
7
100
AcDbSpline
 70
8
 71
3
 72
8
 73
4
 74
0
 40
0
 40
0
 40
0
 40
0
 40
1
 40
1
 40
1
 40
1
 10
80.976174
 20
60.723365
 30
0.0
 10
81.238847
 20
61.312028
 30
0.0
 10
81.759944
 20
62.074047
 30
0.0
 10
82.134170
 20
62.416743
 30
0.0
  0
SPLINE
  5
1c3
100
AcDbEntity
  8
0
 62
7
100
AcDbSpline
 70
8
 71
3
 72
8
 73
4
 74
0
 40
0
 40
0
 40
0
 40
0
 40
1
 40
1
 40
1
 40
1
 10
82.134170
 20
62.416743
 30
0.0
 10
82.798446
 20
63.025049
 30
0.0
 10
83.046380
 20
63.778035
 30
0.0
 10
82.582396
 20
63.778035
 30
0.0
  0
SPLINE
  5
1c4
100
AcDbEntity
  8
0
 62
7
100
AcDbSpline
 70
8
 71
3
 72
8
 73
4
 74
0
 40
0
 40
0
 40
0
 40
0
 40
1
 40
1
 40
1
 40
1
 10
82.582396
 20
63.778035
 30
0.0
 10
82.454694
 20
63.778035
 30
0.0
 10
82.208783
 20
63.607625
 30
0.0
 10
82.035928
 20
63.399347
 30
0.0
  0
SPLINE
  5
1c5
100
AcDbEntity
  8
0
 62
7
100
AcDbSpline
 70
8
 71
3
 72
8
 73
4
 74
0
 40
0
 40
0
 40
0
 40
0
 40
1
 40
1
 40
1
 40
1
 10
82.035928
 20
63.399347
 30
0.0
 10
81.863073
 20
63.191070
 30
0.0
 10
81.401438
 20
63.029764
 30
0.0
 10
81.010072
 20
63.040892
 30
0.0
  0
SPLINE
  5
1c6
100
AcDbEntity
  8
0
 62
7
100
AcDbSpline
 70
8
 71
3
 72
8
 73
4
 74
0
 40
0
 40
0
 40
0
 40
0
 40
1
 40
1
 40
1
 40
1
 10
81.010072
 20
63.040892
 30
0.0
 10
79.843588
 20
63.074058
 30
0.0
 10
79.119042
 20
62.731422
 30
0.0
 10
77.044727
 20
61.165690
 30
0.0
  0
SPLINE
  5
1c7
100
AcDbEntity
  8
0
 62
7
100
AcDbSpline
 70
8
 71
3
 72
8
 73
4
 74
0
 40
0
 40
0
 40
0
 40
0
 40
1
 40
1
 40
1
 40
1
 10
77.044727
 20
61.165690
 30
0.0
 10
73.128423
 20
58.209587
 30
0.0
 10
71.650122
 20
57.201694
 30
0.0
 10
69.820412
 20
56.240206
 30
0.0
  0
SPLINE
  5
1c8
100
AcDbEntity
  8
0
 62
7
100
AcDbSpline
 70
8
 71
3
 72
8
 73
4
 74
0
 40
0
 40
0
 40
0
 40
0
 40
1
 40
1
 40
1
 40
1
 10
69.820412
 20
56.240206
 30
0.0
 10
68.796643
 20
55.702234
 30
0.0
 10
67.907585
 20
55.313506
 30
0.0
 10
67.844720
 20
55.376368
 30
0.0
  0
SPLINE
  5
1c9
100
AcDbEntity
  8
0
 62
7
100
AcDbSpline
 70
8
 71
3
 72
8
 73
4
 74
0
 40
0
 40
0
 40
0
 40
0
 40
1
 40
1
 40
1
 40
1
 10
67.844720
 20
55.376368
 30
0.0
 10
67.781858
 20
55.439231
 30
0.0
 10
68.338830
 20
56.003679
 30
0.0
 10
69.082436
 20
56.630697
 30
0.0
  0
SPLINE
  5
1ca
100
AcDbEntity
  8
0
 62
7
100
AcDbSpline
 70
8
 71
3
 72
8
 73
4
 74
0
 40
0
 40
0
 40
0
 40
0
 40
1
 40
1
 40
1
 40
1
 10
69.082436
 20
56.630697
 30
0.0
 10
70.320003
 20
57.674230
 30
0.0
 10
71.434066
 20
59.093203
 30
0.0
 10
71.436510
 20
59.629072
 30
0.0
  0
SPLINE
  5
1cb
100
AcDbEntity
  8
0
 62
7
100
AcDbSpline
 70
8
 71
3
 72
8
 73
4
 74
0
 40
0
 40
0
 40
0
 40
0
 40
1
 40
1
 40
1
 40
1
 10
71.436510
 20
59.629072
 30
0.0
 10
71.437040
 20
59.748235
 30
0.0
 10
70.514766
 20
59.198142
 30
0.0
 10
69.386979
 20
58.406646
 30
0.0
  0
SPLINE
  5
1cc
100
AcDbEntity
  8
0
 62
7
100
AcDbSpline
 70
8
 71
3
 72
8
 73
4
 74
0
 40
0
 40
0
 40
0
 40
0
 40
1
 40
1
 40
1
 40
1
 10
69.386979
 20
58.406646
 30
0.0
 10
66.690856
 20
56.514468
 30
0.0
 10
64.744632
 20
55.437992
 30
0.0
 10
62.826844
 20
54.778177
 30
0.0
  0
SPLINE
  5
1cd
100
AcDbEntity
  8
0
 62
7
100
AcDbSpline
 70
8
 71
3
 72
8
 73
4
 74
0
 40
0
 40
0
 40
0
 40
0
 40
1
 40
1
 40
1
 40
1
 10
62.826844
 20
54.778177
 30
0.0
 10
60.135765
 20
53.852310
 30
0.0
 10
56.969001
 20
54.132538
 30
0.0
 10
55.157992
 20
55.456794
 30
0.0
  0
LWPOLYLINE
  5
1ce
100
AcDbEntity
  8
0
 62
7
100
AcDbPolyline
 90
1
 70
1
 10
60.143705
 20
25.819304
 30
0.0
  0
SPLINE
  5
1cf
100
AcDbEntity
  8
0
 62
7
100
AcDbSpline
 70
8
 71
3
 72
8
 73
4
 74
0
 40
0
 40
0
 40
0
 40
0
 40
1
 40
1
 40
1
 40
1
 10
53.591187
 20
55.432460
 30
0.0
 10
51.970398
 20
54.140087
 30
0.0
 10
48.467957
 20
53.846079
 30
0.0
 10
45.943753
 20
54.790504
 30
0.0
  0
SPLINE
  5
1d0
100
AcDbEntity
  8
0
 62
7
100
AcDbSpline
 70
8
 71
3
 72
8
 73
4
 74
0
 40
0
 40
0
 40
0
 40
0
 40
1
 40
1
 40
1
 40
1
 10
45.943753
 20
54.790504
 30
0.0
 10
45.134628
 20
55.093238
 30
0.0
 10
43.570877
 20
55.929588
 30
0.0
 10
42.468750
 20
56.649064
 30
0.0
  0
SPLINE
  5
1d1
100
AcDbEntity
  8
0
 62
7
100
AcDbSpline
 70
8
 71
3
 72
8
 73
4
 74
0
 40
0
 40
0
 40
0
 40
0
 40
1
 40
1
 40
1
 40
1
 10
42.468750
 20
56.649064
 30
0.0
 10
41.366625
 20
57.368541
 30
0.0
 10
40.409035
 20
57.957201
 30
0.0
 10
40.340775
 20
57.957201
 30
0.0
  0
SPLINE
  5
1d2
100
AcDbEntity
  8
0
 62
7
100
AcDbSpline
 70
8
 71
3
 72
8
 73
4
 74
0
 40
0
 40
0
 40
0
 40
0
 40
1
 40
1
 40
1
 40
1
 10
40.340775
 20
57.957201
 30
0.0
 10
39.971678
 20
57.957201
 30
0.0
 10
40.297153
 20
56.643460
 30
0.0
 10
40.772921
 20
56.212896
 30
0.0
  0
SPLINE
  5
1d3
100
AcDbEntity
  8
0
 62
7
100
AcDbSpline
 70
8
 71
3
 72
8
 73
4
 74
0
 40
0
 40
0
 40
0
 40
0
 40
1
 40
1
 40
1
 40
1
 10
40.772921
 20
56.212896
 30
0.0
 10
41.283414
 20
55.750907
 30
0.0
 10
42.068750
 20
54.487662
 30
0.0
 10
42.068750
 20
54.128506
 30
0.0
  0
SPLINE
  5
1d4
100
AcDbEntity
  8
0
 62
7
100
AcDbSpline
 70
8
 71
3
 72
8
 73
4
 74
0
 40
0
 40
0
 40
0
 40
0
 40
1
 40
1
 40
1
 40
1
 10
42.068750
 20
54.128506
 30
0.0
 10
42.068750
 20
53.636394
 30
0.0
 10
37.342818
 20
56.791632
 30
0.0
 10
32.479813
 20
60.530491
 30
0.0
  0
SPLINE
  5
1d5
100
AcDbEntity
  8
0
 62
7
100
AcDbSpline
 70
8
 71
3
 72
8
 73
4
 74
0
 40
0
 40
0
 40
0
 40
0
 40
1
 40
1
 40
1
 40
1
 10
32.479813
 20
60.530491
 30
0.0
 10
29.727655
 20
62.646454
 30
0.0
 10
28.515075
 20
63.265188
 30
0.0
 10
27.500509
 20
63.071243
 30
0.0
  0
SPLINE
  5
1d6
100
AcDbEntity
  8
0
 62
7
100
AcDbSpline
 70
8
 71
3
 72
8
 73
4
 74
0
 40
0
 40
0
 40
0
 40
0
 40
1
 40
1
 40
1
 40
1
 10
27.500509
 20
63.071243
 30
0.0
 10
27.075281
 20
62.989955
 30
0.0
 10
26.693810
 20
63.097436
 30
0.0
 10
26.475992
 20
63.359885
 30
0.0
  0
SPLINE
  5
1d7
100
AcDbEntity
  8
0
 62
7
100
AcDbSpline
 70
8
 71
3
 72
8
 73
4
 74
0
 40
0
 40
0
 40
0
 40
0
 40
1
 40
1
 40
1
 40
1
 10
26.475992
 20
63.359885
 30
0.0
 10
26.285122
 20
63.589866
 30
0.0
 10
26.021415
 20
63.778035
 30
0.0
 10
25.889975
 20
63.778035
 30
0.0
  0
SPLINE
  5
1d8
100
AcDbEntity
  8
0
 62
7
100
AcDbSpline
 70
8
 71
3
 72
8
 73
4
 74
0
 40
0
 40
0
 40
0
 40
0
 40
1
 40
1
 40
1
 40
1
 10
25.889975
 20
63.778035
 30
0.0
 10
25.543672
 20
63.778035
 30
0.0
 10
26.417139
 20
62.189736
 30
0.0
 10
26.856068
 20
62.021302
 30
0.0
  0
SPLINE
  5
1d9
100
AcDbEntity
  8
0
 62
7
100
AcDbSpline
 70
8
 71
3
 72
8
 73
4
 74
0
 40
0
 40
0
 40
0
 40
0
 40
1
 40
1
 40
1
 40
1
 10
26.856068
 20
62.021302
 30
0.0
 10
27.059607
 20
61.943197
 30
0.0
 10
27.422377
 20
61.383775
 30
0.0
 10
27.662227
 20
60.778144
 30
0.0
  0
SPLINE
  5
1da
100
AcDbEntity
  8
0
 62
7
100
AcDbSpline
 70
8
 71
3
 72
8
 73
4
 74
0
 40
0
 40
0
 40
0
 40
0
 40
1
 40
1
 40
1
 40
1
 10
27.662227
 20
60.778144
 30
0.0
 10
27.997071
 20
59.932644
 30
0.0
 10
28.472244
 20
59.431282
 30
0.0
 10
29.708906
 20
58.618660
 30
0.0
  0
SPLINE
  5
1db
100
AcDbEntity
  8
0
 62
7
100
AcDbSpline
 70
8
 71
3
 72
8
 73
4
 74
0
 40
0
 40
0
 40
0
 40
0
 40
1
 40
1
 40
1
 40
1
 10
29.708906
 20
58.618660
 30
0.0
 10
30.594731
 20
58.036576
 30
0.0
 10
31.440043
 20
57.360645
 30
0.0
 10
31.587379
 20
57.116588
 30
0.0
  0
SPLINE
  5
1dc
100
AcDbEntity
  8
0
 62
7
100
AcDbSpline
 70
8
 71
3
 72
8
 73
4
 74
0
 40
0
 40
0
 40
0
 40
0
 40
1
 40
1
 40
1
 40
1
 10
31.587379
 20
57.116588
 30
0.0
 10
31.897722
 20
56.602508
 30
0.0
 10
31.092124
 20
53.610433
 30
0.0
 10
29.890294
 20
50.813451
 30
0.0
  0
SPLINE
  5
1dd
100
AcDbEntity
  8
0
 62
7
100
AcDbSpline
 70
8
 71
3
 72
8
 73
4
 74
0
 40
0
 40
0
 40
0
 40
0
 40
1
 40
1
 40
1
 40
1
 10
29.890294
 20
50.813451
 30
0.0
 10
28.845100
 20
48.381005
 30
0.0
 10
28.759703
 20
47.697244
 30
0.0
 10
29.238297
 20
45.593032
 30
0.0
  0
SPLINE
  5
1de
100
AcDbEntity
  8
0
 62
7
100
AcDbSpline
 70
8
 71
3
 72
8
 73
4
 74
0
 40
0
 40
0
 40
0
 40
0
 40
1
 40
1
 40
1
 40
1
 10
29.238297
 20
45.593032
 30
0.0
 10
29.874583
 20
42.795489
 30
0.0
 10
30.007761
 20
42.687176
 30
0.0
 10
31.740875
 20
43.557669
 30
0.0
  0
SPLINE
  5
1df
100
AcDbEntity
  8
0
 62
7
100
AcDbSpline
 70
8
 71
3
 72
8
 73
4
 74
0
 40
0
 40
0
 40
0
 40
0
 40
1
 40
1
 40
1
 40
1
 10
31.740875
 20
43.557669
 30
0.0
 10
33.625647
 20
44.504335
 30
0.0
 10
35.034905
 20
44.635703
 30
0.0
 10
37.153525
 20
44.062219
 30
0.0
  0
SPLINE
  5
1e0
100
AcDbEntity
  8
0
 62
7
100
AcDbSpline
 70
8
 71
3
 72
8
 73
4
 74
0
 40
0
 40
0
 40
0
 40
0
 40
1
 40
1
 40
1
 40
1
 10
37.153525
 20
44.062219
 30
0.0
 10
38.374439
 20
43.731733
 30
0.0
 10
39.308283
 20
43.645566
 30
0.0
 10
40.346540
 20
43.767592
 30
0.0
  0
SPLINE
  5
1e1
100
AcDbEntity
  8
0
 62
7
100
AcDbSpline
 70
8
 71
3
 72
8
 73
4
 74
0
 40
0
 40
0
 40
0
 40
0
 40
1
 40
1
 40
1
 40
1
 10
40.346540
 20
43.767592
 30
0.0
 10
41.459457
 20
43.898394
 30
0.0
 10
41.967266
 20
43.839617
 30
0.0
 10
42.448501
 20
43.524300
 30
0.0
  0
SPLINE
  5
1e2
100
AcDbEntity
  8
0
 62
7
100
AcDbSpline
 70
8
 71
3
 72
8
 73
4
 74
0
 40
0
 40
0
 40
0
 40
0
 40
1
 40
1
 40
1
 40
1
 10
42.448501
 20
43.524300
 30
0.0
 10
43.274679
 20
42.982967
 30
0.0
 10
43.764549
 20
43.282473
 30
0.0
 10
45.125696
 20
45.161131
 30
0.0
  0
SPLINE
  5
1e3
100
AcDbEntity
  8
0
 62
7
100
AcDbSpline
 70
8
 71
3
 72
8
 73
4
 74
0
 40
0
 40
0
 40
0
 40
0
 40
1
 40
1
 40
1
 40
1
 10
45.125696
 20
45.161131
 30
0.0
 10
45.924589
 20
46.263769
 30
0.0
 10
46.310785
 20
46.580118
 30
0.0
 10
46.857986
 20
46.580118
 30
0.0
  0
SPLINE
  5
1e4
100
AcDbEntity
  8
0
 62
7
100
AcDbSpline
 70
8
 71
3
 72
8
 73
4
 74
0
 40
0
 40
0
 40
0
 40
0
 40
1
 40
1
 40
1
 40
1
 10
46.857986
 20
46.580118
 30
0.0
 10
47.477511
 20
46.580118
 30
0.0
 10
47.600026
 20
46.731230
 30
0.0
 10
47.876949
 20
47.836889
 30
0.0
  0
SPLINE
  5
1e5
100
AcDbEntity
  8
0
 62
7
100
AcDbSpline
 70
8
 71
3
 72
8
 73
4
 74
0
 40
0
 40
0
 40
0
 40
0
 40
1
 40
1
 40
1
 40
1
 10
47.876949
 20
47.836889
 30
0.0
 10
48.050074
 20
48.528113
 30
0.0
 10
48.414702
 20
49.599675
 30
0.0
 10
48.687233
 20
50.218139
 30
0.0
  0
SPLINE
  5
1e6
100
AcDbEntity
  8
0
 62
7
100
AcDbSpline
 70
8
 71
3
 72
8
 73
4
 74
0
 40
0
 40
0
 40
0
 40
0
 40
1
 40
1
 40
1
 40
1
 10
48.687233
 20
50.218139
 30
0.0
 10
49.112562
 20
51.183347
 30
0.0
 10
49.295891
 20
51.342618
 30
0.0
 10
49.981578
 20
51.342618
 30
0.0
  0
SPLINE
  5
1e7
100
AcDbEntity
  8
0
 62
7
100
AcDbSpline
 70
8
 71
3
 72
8
 73
4
 74
0
 40
0
 40
0
 40
0
 40
0
 40
1
 40
1
 40
1
 40
1
 10
49.981578
 20
51.342618
 30
0.0
 10
50.420934
 20
51.342618
 30
0.0
 10
51.406655
 20
51.095775
 30
0.0
 10
52.172063
 20
50.794079
 30
0.0
  0
SPLINE
  5
1e8
100
AcDbEntity
  8
0
 62
7
100
AcDbSpline
 70
8
 71
3
 72
8
 73
4
 74
0
 40
0
 40
0
 40
0
 40
0
 40
1
 40
1
 40
1
 40
1
 10
52.172063
 20
50.794079
 30
0.0
 10
53.966380
 20
50.086826
 30
0.0
 10
54.599517
 20
50.083953
 30
0.0
 10
56.445671
 20
50.774685
 30
0.0
  0
SPLINE
  5
1e9
100
AcDbEntity
  8
0
 62
7
100
AcDbSpline
 70
8
 71
3
 72
8
 73
4
 74
0
 40
0
 40
0
 40
0
 40
0
 40
1
 40
1
 40
1
 40
1
 10
56.445671
 20
50.774685
 30
0.0
 10
59.189437
 20
51.801260
 30
0.0
 10
59.657750
 20
51.531343
 30
0.0
 10
60.624709
 20
48.366053
 30
0.0
  0
SPLINE
  5
1ea
100
AcDbEntity
  8
0
 62
7
100
AcDbSpline
 70
8
 71
3
 72
8
 73
4
 74
0
 40
0
 40
0
 40
0
 40
0
 40
1
 40
1
 40
1
 40
1
 10
60.624709
 20
48.366053
 30
0.0
 10
61.133217
 20
46.701475
 30
0.0
 10
61.222017
 20
46.580115
 30
0.0
 10
61.931476
 20
46.580115
 30
0.0
  0
SPLINE
  5
1eb
100
AcDbEntity
  8
0
 62
7
100
AcDbSpline
 70
8
 71
3
 72
8
 73
4
 74
0
 40
0
 40
0
 40
0
 40
0
 40
1
 40
1
 40
1
 40
1
 10
61.931476
 20
46.580115
 30
0.0
 10
62.490324
 20
46.580115
 30
0.0
 10
62.796992
 20
46.386702
 30
0.0
 10
63.085149
 20
45.852511
 30
0.0
  0
SPLINE
  5
1ec
100
AcDbEntity
  8
0
 62
7
100
AcDbSpline
 70
8
 71
3
 72
8
 73
4
 74
0
 40
0
 40
0
 40
0
 40
0
 40
1
 40
1
 40
1
 40
1
 10
63.085149
 20
45.852511
 30
0.0
 10
63.301015
 20
45.452329
 30
0.0
 10
63.889260
 20
44.648657
 30
0.0
 10
64.392358
 20
44.066574
 30
0.0
  0
LWPOLYLINE
  5
1ed
100
AcDbEntity
  8
0
 62
7
100
AcDbPolyline
 90
3
 70
0
 10
55.157992
 20
55.456794
 30
0.0
 10
54.356611
 20
56.042788
 30
0.0
 10
53.591187
 20
55.432460
 30
0.0
  0
SPLINE
  5
1ee
100
AcDbEntity
  8
0
 62
7
100
AcDbSpline
 70
8
 71
3
 72
8
 73
4
 74
0
 40
0
 40
0
 40
0
 40
0
 40
1
 40
1
 40
1
 40
1
 10
66.216670
 20
43.491949
 30
0.0
 10
66.991391
 20
43.903934
 30
0.0
 10
67.290392
 20
43.931462
 30
0.0
 10
68.233176
 20
43.677594
 30
0.0
  0
SPLINE
  5
1ef
100
AcDbEntity
  8
0
 62
7
100
AcDbSpline
 70
8
 71
3
 72
8
 73
4
 74
0
 40
0
 40
0
 40
0
 40
0
 40
1
 40
1
 40
1
 40
1
 10
68.233176
 20
43.677594
 30
0.0
 10
69.182771
 20
43.421895
 30
0.0
 10
69.582879
 20
43.461546
 30
0.0
 10
71.048412
 20
43.956576
 30
0.0
  0
SPLINE
  5
1f0
100
AcDbEntity
  8
0
 62
7
100
AcDbSpline
 70
8
 71
3
 72
8
 73
4
 74
0
 40
0
 40
0
 40
0
 40
0
 40
1
 40
1
 40
1
 40
1
 10
71.048412
 20
43.956576
 30
0.0
 10
73.223329
 20
44.691226
 30
0.0
 10
74.463122
 20
44.539736
 30
0.0
 10
76.427740
 20
43.299279
 30
0.0
  0
SPLINE
  5
1f1
100
AcDbEntity
  8
0
 62
7
100
AcDbSpline
 70
8
 71
3
 72
8
 73
4
 74
0
 40
0
 40
0
 40
0
 40
0
 40
1
 40
1
 40
1
 40
1
 10
76.427740
 20
43.299279
 30
0.0
 10
77.248369
 20
42.781135
 30
0.0
 10
78.098385
 20
42.386247
 30
0.0
 10
78.316667
 20
42.421752
 30
0.0
  0
SPLINE
  5
1f2
100
AcDbEntity
  8
0
 62
7
100
AcDbSpline
 70
8
 71
3
 72
8
 73
4
 74
0
 40
0
 40
0
 40
0
 40
0
 40
1
 40
1
 40
1
 40
1
 10
78.316667
 20
42.421752
 30
0.0
 10
78.534948
 20
42.457254
 30
0.0
 10
78.873982
 20
42.960925
 30
0.0
 10
79.070078
 20
43.541021
 30
0.0
  0
LWPOLYLINE
  5
1f3
100
AcDbEntity
  8
0
 62
7
100
AcDbPolyline
 90
3
 70
0
 10
64.392358
 20
44.066574
 30
0.0
 10
65.307080
 20
43.008240
 30
0.0
 10
66.216670
 20
43.491949
 30
0.0
  0
SPLINE
  5
1f4
100
AcDbEntity
  8
0
 62
7
100
AcDbSpline
 70
8
 71
3
 72
8
 73
4
 74
0
 40
0
 40
0
 40
0
 40
0
 40
1
 40
1
 40
1
 40
1
 10
69.226597
 20
11.321158
 30
0.0
 10
68.936261
 20
13.077783
 30
0.0
 10
69.054387
 20
14.403628
 30
0.0
 10
69.609946
 20
15.623868
 30
0.0
  0
SPLINE
  5
1f5
100
AcDbEntity
  8
0
 62
7
100
AcDbSpline
 70
8
 71
3
 72
8
 73
4
 74
0
 40
0
 40
0
 40
0
 40
0
 40
1
 40
1
 40
1
 40
1
 10
69.609946
 20
15.623868
 30
0.0
 10
70.123113
 20
16.750998
 30
0.0
 10
70.172188
 20
16.787103
 30
0.0
 10
70.530178
 20
16.300902
 30
0.0
  0
SPLINE
  5
1f6
100
AcDbEntity
  8
0
 62
7
100
AcDbSpline
 70
8
 71
3
 72
8
 73
4
 74
0
 40
0
 40
0
 40
0
 40
0
 40
1
 40
1
 40
1
 40
1
 10
70.530178
 20
16.300902
 30
0.0
 10
71.366229
 20
15.165425
 30
0.0
 10
70.882714
 20
11.563654
 30
0.0
 10
69.770297
 20
10.640430
 30
0.0
  0
SPLINE
  5
1f7
100
AcDbEntity
  8
0
 62
7
100
AcDbSpline
 70
8
 71
3
 72
8
 73
4
 74
0
 40
0
 40
0
 40
0
 40
0
 40
1
 40
1
 40
1
 40
1
 10
69.770297
 20
10.640430
 30
0.0
 10
69.455525
 20
10.379191
 30
0.0
 10
69.363175
 20
10.494817
 30
0.0
 10
69.226597
 20
11.321158
 30
0.0
  0
LWPOLYLINE
  5
1f8
100
AcDbEntity
  8
0
 62
7
100
AcDbPolyline
 90
1
 70
1
 10
79.070078
 20
43.541021
 30
0.0
  0
SPLINE
  5
1f9
100
AcDbEntity
  8
0
 62
7
100
AcDbSpline
 70
8
 71
3
 72
8
 73
4
 74
0
 40
0
 40
0
 40
0
 40
0
 40
1
 40
1
 40
1
 40
1
 10
38.634011
 20
11.443584
 30
0.0
 10
38.341152
 20
11.923731
 30
0.0
 10
38.033936
 20
12.674081
 30
0.0
 10
37.951309
 20
13.111033
 30
0.0
  0
SPLINE
  5
1fa
100
AcDbEntity
  8
0
 62
7
100
AcDbSpline
 70
8
 71
3
 72
8
 73
4
 74
0
 40
0
 40
0
 40
0
 40
0
 40
1
 40
1
 40
1
 40
1
 10
37.951309
 20
13.111033
 30
0.0
 10
37.729919
 20
14.281793
 30
0.0
 10
37.923417
 20
16.493990
 30
0.0
 10
38.256795
 20
16.603541
 30
0.0
  0
SPLINE
  5
1fb
100
AcDbEntity
  8
0
 62
7
100
AcDbSpline
 70
8
 71
3
 72
8
 73
4
 74
0
 40
0
 40
0
 40
0
 40
0
 40
1
 40
1
 40
1
 40
1
 10
38.256795
 20
16.603541
 30
0.0
 10
38.415791
 20
16.655788
 30
0.0
 10
38.874880
 20
16.223790
 30
0.0
 10
39.276991
 20
15.643543
 30
0.0
  0
SPLINE
  5
1fc
100
AcDbEntity
  8
0
 62
7
100
AcDbSpline
 70
8
 71
3
 72
8
 73
4
 74
0
 40
0
 40
0
 40
0
 40
0
 40
1
 40
1
 40
1
 40
1
 10
39.276991
 20
15.643543
 30
0.0
 10
39.965638
 20
14.649823
 30
0.0
 10
39.997224
 20
14.480257
 30
0.0
 10
39.820842
 20
12.723913
 30
0.0
  0
SPLINE
  5
1fd
100
AcDbEntity
  8
0
 62
7
100
AcDbSpline
 70
8
 71
3
 72
8
 73
4
 74
0
 40
0
 40
0
 40
0
 40
0
 40
1
 40
1
 40
1
 40
1
 10
39.820842
 20
12.723913
 30
0.0
 10
39.717850
 20
11.698362
 30
0.0
 10
39.528485
 20
10.794323
 30
0.0
 10
39.400033
 20
10.714934
 30
0.0
  0
SPLINE
  5
1fe
100
AcDbEntity
  8
0
 62
7
100
AcDbSpline
 70
8
 71
3
 72
8
 73
4
 74
0
 40
0
 40
0
 40
0
 40
0
 40
1
 40
1
 40
1
 40
1
 10
39.400033
 20
10.714934
 30
0.0
 10
39.271580
 20
10.635546
 30
0.0
 10
38.926871
 20
10.963439
 30
0.0
 10
38.634011
 20
11.443584
 30
0.0
  0
LWPOLYLINE
  5
1ff
100
AcDbEntity
  8
0
 62
7
100
AcDbPolyline
 90
1
 70
1
 10
69.226597
 20
11.321158
 30
0.0
  0
SPLINE
  5
200
100
AcDbEntity
  8
0
 62
7
100
AcDbSpline
 70
8
 71
3
 72
8
 73
4
 74
0
 40
0
 40
0
 40
0
 40
0
 40
1
 40
1
 40
1
 40
1
 10
8.896793
 20
41.098303
 30
0.0
 10
7.579253
 20
42.706187
 30
0.0
 10
6.177421
 20
45.108238
 30
0.0
 10
5.676549
 20
46.616220
 30
0.0
  0
SPLINE
  5
201
100
AcDbEntity
  8
0
 62
7
100
AcDbSpline
 70
8
 71
3
 72
8
 73
4
 74
0
 40
0
 40
0
 40
0
 40
0
 40
1
 40
1
 40
1
 40
1
 10
5.676549
 20
46.616220
 30
0.0
 10
5.440723
 20
47.326225
 30
0.0
 10
5.152328
 20
47.848147
 30
0.0
 10
5.035667
 20
47.776048
 30
0.0
  0
SPLINE
  5
202
100
AcDbEntity
  8
0
 62
7
100
AcDbSpline
 70
8
 71
3
 72
8
 73
4
 74
0
 40
0
 40
0
 40
0
 40
0
 40
1
 40
1
 40
1
 40
1
 10
5.035667
 20
47.776048
 30
0.0
 10
4.919007
 20
47.703949
 30
0.0
 10
4.741535
 20
47.097979
 30
0.0
 10
4.641282
 20
46.429451
 30
0.0
  0
SPLINE
  5
203
100
AcDbEntity
  8
0
 62
7
100
AcDbSpline
 70
8
 71
3
 72
8
 73
4
 74
0
 40
0
 40
0
 40
0
 40
0
 40
1
 40
1
 40
1
 40
1
 10
4.641282
 20
46.429451
 30
0.0
 10
4.482178
 20
45.368461
 30
0.0
 10
4.344838
 20
45.166240
 30
0.0
 10
3.560917
 20
44.838697
 30
0.0
  0
SPLINE
  5
204
100
AcDbEntity
  8
0
 62
7
100
AcDbSpline
 70
8
 71
3
 72
8
 73
4
 74
0
 40
0
 40
0
 40
0
 40
0
 40
1
 40
1
 40
1
 40
1
 10
3.560917
 20
44.838697
 30
0.0
 10
2.297516
 20
44.310813
 30
0.0
 10
1.660153
 20
44.370538
 30
0.0
 10
1.212372
 20
45.058764
 30
0.0
  0
SPLINE
  5
205
100
AcDbEntity
  8
0
 62
7
100
AcDbSpline
 70
8
 71
3
 72
8
 73
4
 74
0
 40
0
 40
0
 40
0
 40
0
 40
1
 40
1
 40
1
 40
1
 10
1.212372
 20
45.058764
 30
0.0
 10
0.627950
 20
45.957006
 30
0.0
 10
0.184307
 20
54.225201
 30
0.0
 10
0.158272
 20
64.704076
 30
0.0
  0
SPLINE
  5
206
100
AcDbEntity
  8
0
 62
7
100
AcDbSpline
 70
8
 71
3
 72
8
 73
4
 74
0
 40
0
 40
0
 40
0
 40
0
 40
1
 40
1
 40
1
 40
1
 10
0.158272
 20
64.704076
 30
0.0
 10
0.140148
 20
72.000062
 30
0.0
 10
0.224828
 20
74.324853
 30
0.0
 10
0.606413
 20
77.007201
 30
0.0
  0
SPLINE
  5
207
100
AcDbEntity
  8
0
 62
7
100
AcDbSpline
 70
8
 71
3
 72
8
 73
4
 74
0
 40
0
 40
0
 40
0
 40
0
 40
1
 40
1
 40
1
 40
1
 10
0.606413
 20
77.007201
 30
0.0
 10
1.953536
 20
86.476750
 30
0.0
 10
5.331895
 20
96.539039
 30
0.0
 10
8.690161
 20
101.084286
 30
0.0
  0
SPLINE
  5
208
100
AcDbEntity
  8
0
 62
7
100
AcDbSpline
 70
8
 71
3
 72
8
 73
4
 74
0
 40
0
 40
0
 40
0
 40
0
 40
1
 40
1
 40
1
 40
1
 10
8.690161
 20
101.084286
 30
0.0
 10
19.678670
 20
115.956669
 30
0.0
 10
43.574785
 20
123.959248
 30
0.0
 10
65.881250
 20
120.237032
 30
0.0
  0
SPLINE
  5
209
100
AcDbEntity
  8
0
 62
7
100
AcDbSpline
 70
8
 71
3
 72
8
 73
4
 74
0
 40
0
 40
0
 40
0
 40
0
 40
1
 40
1
 40
1
 40
1
 10
65.881250
 20
120.237032
 30
0.0
 10
80.114508
 20
117.861968
 30
0.0
 10
92.860797
 20
110.428650
 30
0.0
 10
100.311363
 20
100.158244
 30
0.0
  0
SPLINE
  5
20a
100
AcDbEntity
  8
0
 62
7
100
AcDbSpline
 70
8
 71
3
 72
8
 73
4
 74
0
 40
0
 40
0
 40
0
 40
0
 40
1
 40
1
 40
1
 40
1
 10
100.311363
 20
100.158244
 30
0.0
 10
102.702249
 20
96.862474
 30
0.0
 10
106.014176
 20
88.551734
 30
0.0
 10
107.270373
 20
82.695743
 30
0.0
  0
SPLINE
  5
20b
100
AcDbEntity
  8
0
 62
7
100
AcDbSpline
 70
8
 71
3
 72
8
 73
4
 74
0
 40
0
 40
0
 40
0
 40
0
 40
1
 40
1
 40
1
 40
1
 10
107.270373
 20
82.695743
 30
0.0
 10
108.651871
 20
76.255645
 30
0.0
 10
108.802165
 20
73.413064
 30
0.0
 10
108.479556
 20
59.825705
 30
0.0
  0
SPLINE
  5
20c
100
AcDbEntity
  8
0
 62
7
100
AcDbSpline
 70
8
 71
3
 72
8
 73
4
 74
0
 40
0
 40
0
 40
0
 40
0
 40
1
 40
1
 40
1
 40
1
 10
108.479556
 20
59.825705
 30
0.0
 10
108.325200
 20
53.324652
 30
0.0
 10
108.099704
 20
47.378033
 30
0.0
 10
107.978451
 20
46.610995
 30
0.0
  0
SPLINE
  5
20d
100
AcDbEntity
  8
0
 62
7
100
AcDbSpline
 70
8
 71
3
 72
8
 73
4
 74
0
 40
0
 40
0
 40
0
 40
0
 40
1
 40
1
 40
1
 40
1
 10
107.978451
 20
46.610995
 30
0.0
 10
107.692608
 20
44.802772
 30
0.0
 10
107.262774
 20
44.369852
 30
0.0
 10
105.990287
 20
44.608573
 30
0.0
  0
SPLINE
  5
20e
100
AcDbEntity
  8
0
 62
7
100
AcDbSpline
 70
8
 71
3
 72
8
 73
4
 74
0
 40
0
 40
0
 40
0
 40
0
 40
1
 40
1
 40
1
 40
1
 10
105.990287
 20
44.608573
 30
0.0
 10
104.703465
 20
44.849981
 30
0.0
 10
104.313911
 20
45.284020
 30
0.0
 10
104.099238
 20
46.715572
 30
0.0
  0
SPLINE
  5
20f
100
AcDbEntity
  8
0
 62
7
100
AcDbSpline
 70
8
 71
3
 72
8
 73
4
 74
0
 40
0
 40
0
 40
0
 40
0
 40
1
 40
1
 40
1
 40
1
 10
104.099238
 20
46.715572
 30
0.0
 10
104.001297
 20
47.368677
 30
0.0
 10
103.845389
 20
47.901744
 30
0.0
 10
103.752772
 20
47.900167
 30
0.0
  0
SPLINE
  5
210
100
AcDbEntity
  8
0
 62
7
100
AcDbSpline
 70
8
 71
3
 72
8
 73
4
 74
0
 40
0
 40
0
 40
0
 40
0
 40
1
 40
1
 40
1
 40
1
 10
103.752772
 20
47.900167
 30
0.0
 10
103.660154
 20
47.898579
 30
0.0
 10
103.258559
 20
47.035387
 30
0.0
 10
102.860343
 20
45.981938
 30
0.0
  0
SPLINE
  5
211
100
AcDbEntity
  8
0
 62
7
100
AcDbSpline
 70
8
 71
3
 72
8
 73
4
 74
0
 40
0
 40
0
 40
0
 40
0
 40
1
 40
1
 40
1
 40
1
 10
102.860343
 20
45.981938
 30
0.0
 10
102.446640
 20
44.887531
 30
0.0
 10
101.482702
 20
43.188845
 30
0.0
 10
100.611384
 20
42.018752
 30
0.0
  0
SPLINE
  5
212
100
AcDbEntity
  8
0
 62
7
100
AcDbSpline
 70
8
 71
3
 72
8
 73
4
 74
0
 40
0
 40
0
 40
0
 40
0
 40
1
 40
1
 40
1
 40
1
 10
100.611384
 20
42.018752
 30
0.0
 10
99.271683
 20
40.219667
 30
0.0
 10
98.984689
 20
39.970602
 30
0.0
 10
98.248610
 20
39.968231
 30
0.0
  0
SPLINE
  5
213
100
AcDbEntity
  8
0
 62
7
100
AcDbSpline
 70
8
 71
3
 72
8
 73
4
 74
0
 40
0
 40
0
 40
0
 40
0
 40
1
 40
1
 40
1
 40
1
 10
98.248610
 20
39.968231
 30
0.0
 10
97.787796
 20
39.966643
 30
0.0
 10
97.360793
 20
40.114363
 30
0.0
 10
97.299719
 20
40.296264
 30
0.0
  0
SPLINE
  5
214
100
AcDbEntity
  8
0
 62
7
100
AcDbSpline
 70
8
 71
3
 72
8
 73
4
 74
0
 40
0
 40
0
 40
0
 40
0
 40
1
 40
1
 40
1
 40
1
 10
97.299719
 20
40.296264
 30
0.0
 10
97.212671
 20
40.555524
 30
0.0
 10
97.039507
 20
40.547536
 30
0.0
 10
96.498389
 20
40.259296
 30
0.0
  0
SPLINE
  5
215
100
AcDbEntity
  8
0
 62
7
100
AcDbSpline
 70
8
 71
3
 72
8
 73
4
 74
0
 40
0
 40
0
 40
0
 40
0
 40
1
 40
1
 40
1
 40
1
 10
96.498389
 20
40.259296
 30
0.0
 10
95.769433
 20
39.871004
 30
0.0
 10
94.055377
 20
39.995991
 30
0.0
 10
93.579207
 20
40.472162
 30
0.0
  0
SPLINE
  5
216
100
AcDbEntity
  8
0
 62
7
100
AcDbSpline
 70
8
 71
3
 72
8
 73
4
 74
0
 40
0
 40
0
 40
0
 40
0
 40
1
 40
1
 40
1
 40
1
 10
93.579207
 20
40.472162
 30
0.0
 10
93.061147
 20
40.990221
 30
0.0
 10
92.951369
 20
43.279282
 30
0.0
 10
93.155447
 20
49.308179
 30
0.0
  0
SPLINE
  5
217
100
AcDbEntity
  8
0
 62
7
100
AcDbSpline
 70
8
 71
3
 72
8
 73
4
 74
0
 40
0
 40
0
 40
0
 40
0
 40
1
 40
1
 40
1
 40
1
 10
93.155447
 20
49.308179
 30
0.0
 10
93.269676
 20
52.682693
 30
0.0
 10
93.498591
 20
59.789441
 30
0.0
 10
93.664151
 20
65.100951
 30
0.0
  0
SPLINE
  5
218
100
AcDbEntity
  8
0
 62
7
100
AcDbSpline
 70
8
 71
3
 72
8
 73
4
 74
0
 40
0
 40
0
 40
0
 40
0
 40
1
 40
1
 40
1
 40
1
 10
93.664151
 20
65.100951
 30
0.0
 10
93.990200
 20
75.561373
 30
0.0
 10
94.053427
 20
75.966767
 30
0.0
 10
95.521902
 20
77.012411
 30
0.0
  0
SPLINE
  5
219
100
AcDbEntity
  8
0
 62
7
100
AcDbSpline
 70
8
 71
3
 72
8
 73
4
 74
0
 40
0
 40
0
 40
0
 40
0
 40
1
 40
1
 40
1
 40
1
 10
95.521902
 20
77.012411
 30
0.0
 10
96.577216
 20
77.763862
 30
0.0
 10
97.838347
 20
77.690446
 30
0.0
 10
98.741712
 20
76.824970
 30
0.0
  0
SPLINE
  5
21a
100
AcDbEntity
  8
0
 62
7
100
AcDbSpline
 70
8
 71
3
 72
8
 73
4
 74
0
 40
0
 40
0
 40
0
 40
0
 40
1
 40
1
 40
1
 40
1
 10
98.741712
 20
76.824970
 30
0.0
 10
99.440095
 20
76.155873
 30
0.0
 10
99.504773
 20
76.141633
 30
0.0
 10
99.829345
 20
76.585511
 30
0.0
  0
SPLINE
  5
21b
100
AcDbEntity
  8
0
 62
7
100
AcDbSpline
 70
8
 71
3
 72
8
 73
4
 74
0
 40
0
 40
0
 40
0
 40
0
 40
1
 40
1
 40
1
 40
1
 10
99.829345
 20
76.585511
 30
0.0
 10
100.347182
 20
77.293695
 30
0.0
 10
101.353943
 20
77.017084
 30
0.0
 10
102.055245
 20
75.973937
 30
0.0
  0
SPLINE
  5
21c
100
AcDbEntity
  8
0
 62
7
100
AcDbSpline
 70
8
 71
3
 72
8
 73
4
 74
0
 40
0
 40
0
 40
0
 40
0
 40
1
 40
1
 40
1
 40
1
 10
102.055245
 20
75.973937
 30
0.0
 10
102.388390
 20
75.478402
 30
0.0
 10
103.028903
 20
73.871058
 30
0.0
 10
103.478610
 20
72.402062
 30
0.0
  0
SPLINE
  5
21d
100
AcDbEntity
  8
0
 62
7
100
AcDbSpline
 70
8
 71
3
 72
8
 73
4
 74
0
 40
0
 40
0
 40
0
 40
0
 40
1
 40
1
 40
1
 40
1
 10
103.478610
 20
72.402062
 30
0.0
 10
103.928315
 20
70.933067
 30
0.0
 10
104.391272
 20
69.630750
 30
0.0
 10
104.507406
 20
69.508029
 30
0.0
  0
SPLINE
  5
21e
100
AcDbEntity
  8
0
 62
7
100
AcDbSpline
 70
8
 71
3
 72
8
 73
4
 74
0
 40
0
 40
0
 40
0
 40
0
 40
1
 40
1
 40
1
 40
1
 10
104.507406
 20
69.508029
 30
0.0
 10
104.905342
 20
69.087511
 30
0.0
 10
105.060178
 20
71.847639
 30
0.0
 10
104.784739
 20
74.451808
 30
0.0
  0
SPLINE
  5
21f
100
AcDbEntity
  8
0
 62
7
100
AcDbSpline
 70
8
 71
3
 72
8
 73
4
 74
0
 40
0
 40
0
 40
0
 40
0
 40
1
 40
1
 40
1
 40
1
 10
104.784739
 20
74.451808
 30
0.0
 10
103.887995
 20
82.930201
 30
0.0
 10
100.587720
 20
92.465657
 30
0.0
 10
96.502818
 20
98.380702
 30
0.0
  0
SPLINE
  5
220
100
AcDbEntity
  8
0
 62
7
100
AcDbSpline
 70
8
 71
3
 72
8
 73
4
 74
0
 40
0
 40
0
 40
0
 40
0
 40
1
 40
1
 40
1
 40
1
 10
96.502818
 20
98.380702
 30
0.0
 10
95.771033
 20
99.440348
 30
0.0
 10
95.077878
 20
100.365683
 30
0.0
 10
94.962472
 20
100.437009
 30
0.0
  0
SPLINE
  5
221
100
AcDbEntity
  8
0
 62
7
100
AcDbSpline
 70
8
 71
3
 72
8
 73
4
 74
0
 40
0
 40
0
 40
0
 40
0
 40
1
 40
1
 40
1
 40
1
 10
94.962472
 20
100.437009
 30
0.0
 10
94.847069
 20
100.508333
 30
0.0
 10
94.358534
 20
100.326406
 30
0.0
 10
93.876844
 20
100.032726
 30
0.0
  0
SPLINE
  5
222
100
AcDbEntity
  8
0
 62
7
100
AcDbSpline
 70
8
 71
3
 72
8
 73
4
 74
0
 40
0
 40
0
 40
0
 40
0
 40
1
 40
1
 40
1
 40
1
 10
93.876844
 20
100.032726
 30
0.0
 10
92.540534
 20
99.218003
 30
0.0
 10
91.976379
 20
99.356634
 30
0.0
 10
90.159660
 20
100.946171
 30
0.0
  0
SPLINE
  5
223
100
AcDbEntity
  8
0
 62
7
100
AcDbSpline
 70
8
 71
3
 72
8
 73
4
 74
0
 40
0
 40
0
 40
0
 40
0
 40
1
 40
1
 40
1
 40
1
 10
90.159660
 20
100.946171
 30
0.0
 10
84.307736
 20
106.066306
 30
0.0
 10
75.726618
 20
110.032460
 30
0.0
 10
66.731264
 20
111.774670
 30
0.0
  0
SPLINE
  5
224
100
AcDbEntity
  8
0
 62
7
100
AcDbSpline
 70
8
 71
3
 72
8
 73
4
 74
0
 40
0
 40
0
 40
0
 40
0
 40
1
 40
1
 40
1
 40
1
 10
66.731264
 20
111.774670
 30
0.0
 10
61.887804
 20
112.712747
 30
0.0
 10
58.857959
 20
112.990536
 30
0.0
 10
53.469813
 20
112.990536
 30
0.0
  0
SPLINE
  5
225
100
AcDbEntity
  8
0
 62
7
100
AcDbSpline
 70
8
 71
3
 72
8
 73
4
 74
0
 40
0
 40
0
 40
0
 40
0
 40
1
 40
1
 40
1
 40
1
 10
53.469813
 20
112.990536
 30
0.0
 10
39.365629
 20
112.990536
 30
0.0
 10
27.527864
 20
108.940932
 30
0.0
 10
19.109429
 20
101.236125
 30
0.0
  0
SPLINE
  5
226
100
AcDbEntity
  8
0
 62
7
100
AcDbSpline
 70
8
 71
3
 72
8
 73
4
 74
0
 40
0
 40
0
 40
0
 40
0
 40
1
 40
1
 40
1
 40
1
 10
19.109429
 20
101.236125
 30
0.0
 10
17.745616
 20
99.987922
 30
0.0
 10
16.697932
 20
99.233407
 30
0.0
 10
16.331304
 20
99.235391
 30
0.0
  0
SPLINE
  5
227
100
AcDbEntity
  8
0
 62
7
100
AcDbSpline
 70
8
 71
3
 72
8
 73
4
 74
0
 40
0
 40
0
 40
0
 40
0
 40
1
 40
1
 40
1
 40
1
 10
16.331304
 20
99.235391
 30
0.0
 10
16.007576
 20
99.237243
 30
0.0
 10
15.225550
 20
99.534227
 30
0.0
 10
14.593463
 20
99.895577
 30
0.0
  0
LWPOLYLINE
  5
228
100
AcDbEntity
  8
0
 62
7
100
AcDbPolyline
 90
1
 70
1
 10
38.634011
 20
11.443584
 30
0.0
  0
SPLINE
  5
229
100
AcDbEntity
  8
0
 62
7
100
AcDbSpline
 70
8
 71
3
 72
8
 73
4
 74
0
 40
0
 40
0
 40
0
 40
0
 40
1
 40
1
 40
1
 40
1
 10
12.932152
 20
99.958534
 30
0.0
 10
8.151462
 20
94.412530
 30
0.0
 10
4.395437
 20
83.182219
 30
0.0
 10
4.039236
 20
73.369181
 30
0.0
  0
SPLINE
  5
22a
100
AcDbEntity
  8
0
 62
7
100
AcDbSpline
 70
8
 71
3
 72
8
 73
4
 74
0
 40
0
 40
0
 40
0
 40
0
 40
1
 40
1
 40
1
 40
1
 10
4.039236
 20
73.369181
 30
0.0
 10
3.941488
 20
70.676328
 30
0.0
 10
3.983639
 20
69.334285
 30
0.0
 10
4.165964
 20
69.334285
 30
0.0
  0
SPLINE
  5
22b
100
AcDbEntity
  8
0
 62
7
100
AcDbSpline
 70
8
 71
3
 72
8
 73
4
 74
0
 40
0
 40
0
 40
0
 40
0
 40
1
 40
1
 40
1
 40
1
 10
4.165964
 20
69.334285
 30
0.0
 10
4.410769
 20
69.334285
 30
0.0
 10
4.634154
 20
70.039069
 30
0.0
 10
5.549679
 20
73.699910
 30
0.0
  0
SPLINE
  5
22c
100
AcDbEntity
  8
0
 62
7
100
AcDbSpline
 70
8
 71
3
 72
8
 73
4
 74
0
 40
0
 40
0
 40
0
 40
0
 40
1
 40
1
 40
1
 40
1
 10
5.549679
 20
73.699910
 30
0.0
 10
6.132516
 20
76.030468
 30
0.0
 10
7.747930
 20
77.574746
 30
0.0
 10
8.654585
 20
76.668090
 30
0.0
  0
SPLINE
  5
22d
100
AcDbEntity
  8
0
 62
7
100
AcDbSpline
 70
8
 71
3
 72
8
 73
4
 74
0
 40
0
 40
0
 40
0
 40
0
 40
1
 40
1
 40
1
 40
1
 10
8.654585
 20
76.668090
 30
0.0
 10
9.055471
 20
76.267207
 30
0.0
 10
9.132206
 20
76.283328
 30
0.0
 10
9.690511
 20
76.885752
 30
0.0
  0
SPLINE
  5
22e
100
AcDbEntity
  8
0
 62
7
100
AcDbSpline
 70
8
 71
3
 72
8
 73
4
 74
0
 40
0
 40
0
 40
0
 40
0
 40
1
 40
1
 40
1
 40
1
 10
9.690511
 20
76.885752
 30
0.0
 10
10.795594
 20
78.078153
 30
0.0
 10
12.985153
 20
77.502938
 30
0.0
 10
14.348112
 20
75.662160
 30
0.0
  0
SPLINE
  5
22f
100
AcDbEntity
  8
0
 62
7
100
AcDbSpline
 70
8
 71
3
 72
8
 73
4
 74
0
 40
0
 40
0
 40
0
 40
0
 40
1
 40
1
 40
1
 40
1
 10
14.348112
 20
75.662160
 30
0.0
 10
14.814077
 20
75.032838
 30
0.0
 10
14.884782
 20
74.035304
 30
0.0
 10
15.238903
 20
63.094452
 30
0.0
  0
SPLINE
  5
230
100
AcDbEntity
  8
0
 62
7
100
AcDbSpline
 70
8
 71
3
 72
8
 73
4
 74
0
 40
0
 40
0
 40
0
 40
0
 40
1
 40
1
 40
1
 40
1
 10
15.238903
 20
63.094452
 30
0.0
 10
15.792988
 20
45.975447
 30
0.0
 10
15.824127
 20
41.210532
 30
0.0
 10
15.385392
 20
40.677904
 30
0.0
  0
SPLINE
  5
231
100
AcDbEntity
  8
0
 62
7
100
AcDbSpline
 70
8
 71
3
 72
8
 73
4
 74
0
 40
0
 40
0
 40
0
 40
0
 40
1
 40
1
 40
1
 40
1
 10
15.385392
 20
40.677904
 30
0.0
 10
14.894823
 20
40.082348
 30
0.0
 10
13.341235
 20
39.829534
 30
0.0
 10
12.507210
 20
40.209541
 30
0.0
  0
SPLINE
  5
232
100
AcDbEntity
  8
0
 62
7
100
AcDbSpline
 70
8
 71
3
 72
8
 73
4
 74
0
 40
0
 40
0
 40
0
 40
0
 40
1
 40
1
 40
1
 40
1
 10
12.507210
 20
40.209541
 30
0.0
 10
12.032148
 20
40.425994
 30
0.0
 10
11.741778
 20
40.436062
 30
0.0
 10
11.548500
 20
40.242784
 30
0.0
  0
SPLINE
  5
233
100
AcDbEntity
  8
0
 62
7
100
AcDbSpline
 70
8
 71
3
 72
8
 73
4
 74
0
 40
0
 40
0
 40
0
 40
0
 40
1
 40
1
 40
1
 40
1
 10
11.548500
 20
40.242784
 30
0.0
 10
10.907639
 20
39.601923
 30
0.0
 10
9.840966
 20
39.946061
 30
0.0
 10
8.896793
 20
41.098303
 30
0.0
  0
LWPOLYLINE
  5
234
100
AcDbEntity
  8
0
 62
7
100
AcDbPolyline
 90
3
 70
0
 10
14.593463
 20
99.895577
 30
0.0
 10
13.444218
 20
100.552574
 30
0.0
 10
12.932152
 20
99.958534
 30
0.0
  0
LWPOLYLINE
  5
235
100
AcDbEntity
  8
0
 62
7
100
AcDbPolyline
 90
1
 70
1
 10
8.896793
 20
41.098303
 30
0.0
  0
ENDSEC
  0
SECTION
  2
OBJECTS
  0
DICTIONARY
  5
C
330
0
100
AcDbDictionary
  3
ACAD_GROUP
350
D
  3
ACAD_MLINESTYLE
350
17
  0
DICTIONARY
  5
D
330
C
100
AcDbDictionary
  0
DICTIONARY
  5
1A
330
C
100
AcDbDictionary
  0
DICTIONARY
  5
17
330
C
100
AcDbDictionary
  3
STANDARD
350
18
  0
DICTIONARY
  5
19
330
C
100
AcDbDictionary
  0
ENDSEC
  0
EOF
